Guitar Tabs, Chords and Lyrics


   Various Artists


tabbed by:streetspirit87

Eb :-------------------------------------| 
Bb :---------10-----------------10-------| 
Gb :--11----------11-----11----------11--| 
Db :9------9-----------9------9----------| 
Ab :-------------------------------------| 
Db :-------------------------------------| 

Gb :-------------------------------------| 
Db :-------------------------------------| 
Ab :2--2-2-2--2-2--2-2-------------------| 
Eb :-------------------3--3-3-3--3-3--3-3| 

Eb :-------------------------------------| 
Bb :-------------------------------------| 
Gb :-------------------------------------| 
Db :-------------------------------------| 
Ab :-------------------------------------| 
Db :-------------------------------------| 


=========================
=========================
=========================
== 

Eb :-------------------------------------| 
Bb :---------10-----------------10-------| 
Gb :--11----------11-----11----------11--| 
Db :9------9-----------9------9----------| 
Ab :-------------------------------------| 
Db :-------------------------------------| 

Gb :-------------------------------------| 
Db :-------------------------------------| 
Ab :0--0-0-0--0-0--0-0-------------------| 
Eb :-------------------0--0-0-0--0-0--0-0| 

Eb :-------------------------------------| 
Bb :-------------------------------------| 
Gb :-------------------------------------| 
Db :-------------------------------------| 
Ab :-------------------------------------| 
Db :-------------------------------------| 


=========================
=========================
=========================
== 

Eb :-------------------------------------| 
Bb :---------10-----------------10-------| 
Gb :--11----------11-----11----------11--| 
Db :9------9-----------9------9----------| 
Ab :-------------------------------------| 
Db :-------------------------------------| 

Gb :-------------------------------------| 
Db :-------------------------------------| 
Ab :2--2-2-2--2-2--2-2-------------------| 
Eb :-------------------3--3-3-3--3-3--3-3| 

Eb :-------------------------------------| 
Bb :-------------------------------------| 
Gb :-------------------------------------| 
Db :-------------------------------------| 
Ab :-------------------------------------| 
Db :-------------------------------------| 


=========================
=========================
=========================
== 

Eb :--------------------------------|---------------------------| 
Bb :---------10---------------10----|---------------------------| 
Gb :--11----------11-----11------11-|8-8-8-8-8-8-8-9-9-9-9-9-9-9| 
Db :9------9-----------9----9-------|---------------------------| 
Ab :--------------------------------|6-6-6-6-6-6-6-7-7-7-7-7-7-7| 
Db :--------------------------------|---------------------------| 

Gb :--------------------------------|---------------------------| 
Db :--------------------------------|---------------------------| 
Ab :0--0-0-0--0-0--0-0--------------|2-2-2-2-2-2-2-5-5-5-5-5-5-5| 
Eb :-------------------0------------|---------------------------| 

Eb :--------------------------------|---------------------------| 
Bb :--------------------------------|---------------------------| 
Gb :--------------------------------|---------------------------| 
Db :--------------------------------|4-4-4-4-4-4-4-0-0-0-0-0-0-0| 
Ab :--------------------------------|2-2-2-2-2-2-2-0-0-0-0-0-0-0| 
Db :--------------------------------|4-4-4-4-4-4-4-0-0-0-0-0-0-0| 


=========================
=========================
=========================
== 

Eb :----------------------------------|---------------------------| 
Bb :----------------------------------|---------------------------| 
Gb :11-11-11-11-11-11-11-9-9-9-9-9-9-9|8-8-8-8-8-8-8-9-9-9-9-9-9-9| 
Db :----------------------------------|---------------------------| 
Ab :-9--9--9--9--9--9--9-7-7-7-7-7-7-7|6-6-6-6-6-6-6-7-7-7-7-7-7-7| 
Db :----------------------------------|---------------------------| 

Gb :----------------------------------|---------------------------| 
Db :-5--5--5--5--5--5--5-2-2-2-2-2-2-2|---------------------------| 
Ab :----------------------------------|2-2-2-2-2-2-2-5-5-5-5-5-5-5| 
Eb :----------------------------------|---------------------------| 

Eb :----------------------------------|---------------------------| 
Bb :----------------------------------|---------------------------| 
Gb :----------------------------------|---------------------------| 
Db :-5--5--5--5--5--5--5-2-2-2-2-2-2-2|4-4-4-4-4-4-4-0-0-0-0-0-0-0| 
Ab :-5--5--5--5--5--5--5-2-2-2-2-2-2-2|2-2-2-2-2-2-2-0-0-0-0-0-0-0| 
Db :-5--5--5--5--5--5--5-2-2-2-2-2-2-2|4-4-4-4-4-4-4-0-0-0-0-0-0-0| 


=========================
=========================
=========================
== 

Eb :---------------------------| 
Bb :---------------------------| 
Gb :6-6-6-6-6-6-6-4-4-4-4-4-4-4| 
Db :---------------------------| 
Ab :4-4-4-4-4-4-4-2-2-2-2-2-2-2| 
Db :---------------------------| 

Gb :---------------------------| 
Db :---------------------------| 
Ab :---------------------------| 
Eb :5-5-5-5-5-5-5-0-0-0-0-0-0-0| 

Eb :---------------------------| 
Bb :---------------------------| 
Gb :---------------------------| 
Db :7-7-7-7-7-7-7-2-2-2-2-2-2-2| 
Ab :7-7-7-7-7-7-7-2-2-2-2-2-2-2| 


Important: The song above is NOT stored on the Chordie server. The original song is hosted at www.ultimate-guitar.com. Chordie works as a search engine and provides on-the-fly formatting. Chordie does not index songs against artists/composers will. To remove this song please click here.

This song is displayed as text-only. Transposing and tuning is only available for chordpro-songs.

Login - add to songbook

Rating click stars to rate

Layout
Accuracy

SHARE PAGE  




You need to log in to post comments