Guitar Tabs, Chords and Lyrics


   Stephen Fretwell


Artist: Stephen Fretwell
Title: New York
Album: Magpie (2004)
Contact me: yonni_man@hotmail.com
Tuning: DADGBe

This is just the intro.  It requires drop D tuning.
Listen for timings.  Tabs in a line are strummed.

       D  D  D  D  D  D  D  D  D    D  D  D  D  D  D    D U U D
e|-----2--0--2--3--3--3--2--0--0----0--0--0--0--0--0----0-0-0-0--|
B|-----3--3--3--3--3--3--3--3--3/5--5--5--5--3--5--5/7--7-7-7-7--|
G|-----2--2--2--0--0--0--2--2--0----0--0--0--0--0--0----7-7-7-7--|
D|---------------------------------------------------------------|
A|---------------------------------------------------------------|
D|--0------------------------------------------------------------|

       D U     D U     D U     D U        D  U D U    D U D U
e|-----0-0-----0-0-----0-0-----0-0-----|--0--0-0-0----0-0-0-0----|
B|-----0-0-----0-0-----0-0-----0-0-----|--3--3-3-3/5--5-5-5-5\3--|
G|-----0-0-----0-0-----0-0-----0-0-----|--4--4-4-4/6--6-6-6-6\4--| X 2 
D|--5-------4-------2-------0----------|--5--5-5-5/7--7-7-7-7\5--|
A|----------------------------------0--|-------------------------|
D|-------------------------------------|-------------------------|

x 2 means play the last section twice.

D = Down strum


Important: The song above is NOT stored on the Chordie server. The original song is hosted at www.ultimate-guitar.com. Chordie works as a search engine and provides on-the-fly formatting. Chordie does not index songs against artists'/composers' will. To remove this song please click here.

This song is displayed as text-only. Transposing and tuning is only available for chordpro-songs.

Login - add to songbook

Rating click stars to rate

Layout
Accuracy

SHARE PAGE  




You need to log in to post comments