Guitar Tabs, Chords and Lyrics


Im Gonna Find Another You   John Mayer



| Ultimate Guitar Tabs Archive - your #1 source for tabs!               |
| http://www.ultimate-guitar.com/                                       |
|                                                                       |
| Over 200,000 guitar, guitar pro and bass tabs! Also lessons, news,    |
| columns and guitar forums!                                            |


Artist: John Mayer
Song: Im Gonna Find Another You


Verse 1:

"It's really over...
---5-----------------|
---------------------|
------7-----------7--|
---------6-----6-----|
---------------------|  x2
------------5--------|

"You made you're stand...
---5-----------------|
---------------------|
------5-----------5--|
---------6-----6-----|
---------------------|  x2
------------5--------|

"You've got me cry'n...
---------------------|
---9-----------------|
------7------------7-|
---------7------7----|
------------10-------|  x2
---------------------|

"As was your plan...
---------------------|
---6-----------------|
------7-----------6--|
---------5-----5-----|
------------7--------|  x2
---------------------|

"But when my...
---5-----------------|
---------------------|
------7-----------7--|
---------6-----6-----|
---------------------|  x1
------------5--------|

"Loneliness is through...
---5-----------------|
---------------------|
------5-----------5--|
---------6-----6-----|
---------------------|  x1
------------5--------|

"I'm gonna find...
---7-----------------|
---------------------|
------9-----------9--|
---------7-----7-----|
------------7--------|  x1
---------------------|

"Another...





---------------------|
---7-----------------|
------6-----------6--|
---------7-----7-----|
---------------------|  x1
------------7--------|

"You...
---5----------------5---|
------------------------|
------7-----------7-----|
---------6-----6--------|
------------------------|  x1
------------5-----------|

Verse 2:

"You take your sweaters...
---5-----------------|
---------------------|
------7-----------7--|
---------6-----6-----|
---------------------|  x2
------------5--------|

"You take your time...
---5-----------------|
---------------------|
------5-----------5--|
---------6-----6-----|
---------------------|  x2
------------5--------|

"You might have your reasons...
---------------------|
---9-----------------|
------7------------7-|
---------7------7----|
------------10-------|  x2
---------------------|

"But you wil never have my rhyme...
---------------------|
---6-----------------|
------7-----------6--|
---------5-----5-----|
------------7--------|  x2
---------------------|

"I'm gonna...
---5-----------------|
---------------------|
------7-----------7--|
---------6-----6-----|
---------------------|  x1
------------5--------|

"Sing my way away from blue...
---5-----------------|
---------------------|
------5-----------5--|
---------6-----6-----|
---------------------|  x1
------------5--------|

"I'm gonna find...
---7-----------------|
---------------------|
------9-----------9--|
---------7-----7-----|
------------7--------|  x1
---------------------|

"Another...


---------------------|
---7-----------------|
------6-----------6--|
---------7-----7-----|
---------------------|  x1
------------7--------|

"You...
---5----------------5---|
------------------------|
------7-----------7-----|
---------6-----6--------|
------------------------|  x1
------------5-----------|

Bridge:


-------------------|
-------------------|
-------------------|
-------------------|
---------7---------|
---5-7/9---9\7-5---|


"When I was your lover...
-------------------|
-------------------|
---7--6---2----1---|
---9--7---4----2---|
---x--x---x----x---|
---7--7---2----0---|

"No one else would do...
-----------------|
-----------------|
---7--6---2------|
---9--7---4------|
---x--x---x------|
---7--7---2--14\-|

"If I'm forced to find another...
-----------------|
---7-7-------2---|
---7-7h9p7---2---|
---9---------4---|
---x---------x---|
---7---------2---|

"I hope she looks like you...
------------------------------------|
-------------9-10-9-9----9-9----9---|
---8-9-8-9---9-11-9-9----9-9----9---|
---9-9-9-9---9--9-9-9h10-9-9h10-9---|
---x-x-x-x--------------------------|
---7-7-7-7---0----------------------|

"Yea and she's nicer too...


Verse 3:

"So go on baby...
---5----------------|
---x----------------|
---7----------------|
---6----------------|
---x----------------|
---5----------------|

"Make your little get away...




---5----------------|
---x----------------|
---5----------------|
---6----------------|
---x----------------|
---5----------------|

"My pride will keep me company...
---x----------------|
---9----------------|
---7----------------|
---7----------------|
---10---------------|
---x----------------|

"And you just gave yours all away...
--------------------|
---6----------------|
---7----------------|
---5----------------|
---7----------------|
--------------------|

"Now im gonna dress myself for two...
---5----------------5-|
---x----------------x-|
---7----------------5-|
---6----------------6-|
---x----------------x-|
---5----------------5-|

"One's for me and one's for someone new...
---x----------------|
---9----------------|
---7----------------|
---7----------------|
---10---------------|
---x----------------|

"I'm gonna do some things you wouldn't let me do...
--------------------|
---6----------------|
---7----------------|
---5----------------|
---7----------------|
--------------------|

"Now i'm gonna find...
---x----------------|
---7----------------|
---6----------------|
---7----------------|
---x----------------|
---7----------------|

"Another You...
---5----------------5-------------------5-|
----------------------------------------x-|
------7-----------7----7----------------7-|
---------6-----6----------6-----6-------6-|
----------------------------------------x-|
------------5----------------5----------5-|

END

+--------------------------------------------------------------------------+
| This file is the author's own work and represents their interpretation   |
| of the song. You may only use this file for private study, scholarship,  |
| or research.                                                             |
+--------------------------------------------------------------------------+



Important: The song above is NOT stored on the Chordie server. The original song is hosted at www.ultimate-guitar.com. Chordie works as a search engine and provides on-the-fly formatting. Chordie does not index songs against artists/composers will. To remove this song please click here.

This song is displayed as text-only. Transposing and tuning is only available for chordpro-songs.

Login - add to songbook

Rating click stars to rate

Layout
Accuracy

SHARE PAGE  




You need to log in to post comments