Chordie logo


Seize The Day   Avenged Sevenfold



| Ultimate Guitar Tabs Archive - your #1 source for tabs!               |
| http://www.ultimate-guitar.com/                                       |
|                                                                       |
| Over 200,000 guitar, guitar pro and bass tabs! Also lessons, news,    |
| columns and guitar forums!                                            |


Artist: Avenged Sevenfold
Song: Seize The Day


-----------------------------------------------------------------------------
			     Seize The Day - Avenged Sevenfold
-----------------------------------------------------------------------------
Tabbed by:Sean Mundy
Email:Trotterfan81@aol.com
Guitar 1: Synyster Gates
Tuning:Drop D[DADGBe]
Guitar 2: Zacky Vengeance [Acoustic]
Tuning:Stantard[EADGBe]
 Hope You Enjoy It. =]



Guitar 1:Synster Gates
Pre-Chorus/Intro
e|--------------------------------------------------------13~---------------|
B|-------------------------------------------------------------17~------15~-|
G|------------------------5---5--------5\2-5-10--10---9\7-----------14~-----|
D|---5--5--5--5-5-5-5-5-5-5---5------------x-10--10--10\7-------------------|
A|3345--5--5--5-5-5-5-5-5-3---3----5/7-----7--8---8---7\5-------------------|
D|3345--5--5--5-5-5-5-5-5---------------------------------------------------|
Pt. 1.
e|--------------------------------------------------------------------------|
B|------------------10b-(10)-(10)--/17b~r-----------------------------------|
G|10b~------------x-----------------------14\-------------------------------|
D|--------------x-----------------------------------------------------------|
A|--------------------------------------------------------------------------|
D|--------------------------------------------------------------------------|
Verse- Zacky Does His Pt. Twice Before Syn. Comes In.

e|------1--------3-3-----1-1----3----1--0-1----1------3-3-----1-1---0--1----|
B|--3----3------3-3-3---1-1-1-----1----------3--3----3-3-3---1-1-1---1------|
G|----2---2-------------------------0---------2--2--------------------0-----|
D|0--------0---5-----5\3-----3--------------------0-5-----5\3-----3---------|
A|--------------------------------------------------------------------------|
D|--------------------------------------------------------------------------|
Pre-Chorus x1
Chorus:
e|--------------------------------------------------------------------------|
B|--------------------------------------------------------------------------|
G|7--7-7-7--7/10--10--10-10/12--12-12--12\5--5\3---3/5--5--(5)/10-----------|
D|7--7-7-7--7/10--10--10-10/12--12-12--12\5--5\3---3/5--5--(5)/-x-----------|
A|5--5-5-5--5/-8---8---8--8/10--10-10--10\3--3\1---1/3--3--(3)/-8-----------|
D|--------------------------------------------------------------------------|
Verse x1
Pre-Chorus x1
Chorus x2
Solo: 
e|/13-12----15--------------------------------------------------------------|
B|-------13---13---------------/17b~-17ab-17ab-17ab~-17ab-17ab-17br-17~-----|
G|--------------12-15-15p14-14----------------------------------------------|
D|--------------------------------------------------------------------------|
A|--------------------------------------------------------------------------|
D|--------------------------------------------------------------------------|

e|------------------------------------------------------------18---18-17--17b
B|13\/13-15b-15br~p13-15~-(15)\-------13-15~---------15--18-15--15------18--|
G|------------------------------/14-15----------15-17--15-------------------|
D|-------------------------------------------/15----------------------------|
A|--------------------------------------------------------------------------|
D|--------------------------------------------------------------------------|



e|17~--17-17-17-15-15-----15~~~---13--15-15brb-\-|
B|-----------------------------------------------|
G|-----------------------------------------------|
D|-----------------------------------------------|
A|-----------------------------------------------|
D|-----------------------------------------------|

e|---10--10-----1310--------------------------------------------------------|
B|13b--13--13b~-----1310----1310--------------------------------------------|
G|----------------------1310----1210----------------------------------------|
D|----------------------------------12p10-12~-(12)\/7-8/10-10/12-12/15------|
A|--------------------------------------------------------------------------|
D|--------------------------------------------------------------------------|
                         |-----|Rake
e|-------------13------------17b--17~---\---/15-15b--15brp13----------------|
B|--------11-----11--------18-------------------------------15--18b---------|
G|---10-7----10----10/14-17-------------------------------------------------|
D|/8------------------------------------------------------------------------|
A|--------------------------------------------------------------------------|
D|--------------------------------------------------------------------------|

e|x-------------------------------------------------------------------------|
B|-15--17-18~-15----15--\11-13-15~-15-15-15\13-13\11-11-10-11-10-11p10------|
G|---------------14---------------------------------------------------10\9[10]
D|--------------------------------------------------------------------------|
A|--------------------------------------------------------------------------|
D|--------------------------------------------------------------------------|

e|--------------------------------------------------------------------------|
B|--------------------------------------------------------------------------|
G|5----910---12--\7--10--10--12--14\-3--3-3-3-3--3-3------------------------|
D|5----x-x----x---7---x---x---x---x--3--3-3-3-3--3-3-3-3--3-3-3-3---3-------|
A|3----7-8---10--\5--/8---8--10--12\-1--1-1-1-1--1-1-3-3--3-3-3-3---3-------|
D|---------------------------------------------------3-3--3-3-3-3---3-------|


e|--------------------------------------------------------------------------|
B|--------------------------------------------------------------------------|
G|5---9----10----12---\7-----------(7)\3------------------------------------|
D|5---x-----x-----x----x---------------x------------------------------------|
A|3---7-----8----10---\5-----------(5)\1------------------------------------|
D|--------------------------------------------------------------------------|
Chorus x2
riff 1
e|--------------------------------------------------------------------------|
B|13brp10-13brbR---13/10b---10tr11---10-11br--10h11p10-11-13-13b--14h15-15-17-17b~
G|---------------------------------12---------------------------------------|
D|--------------------------------------------------------------------------|
A|--------------------------------------------------------------------------|
D|--------------------------------------------------------------------------|

e|15\10brbrbrb--------------------------------------------------------------|
B|-------------9brbrbr-9-10-10b~r-10-9-9--(9)br--7~-------------------------|
G|--------------------------------------------------------------------------|
D|--------------------------------------------------------------------------|
A|--------------------------------------------------------------------------|
D|--------------------------------------------------------------------------|
  |--4x---------||------4x-----| |------4x----|  |------4x-----|
e|--------------------------------------------------------------------------|
B|15t3-15t3-15t3-18t6-18t6-18t6--17t5-17t5-17t5---18t6-18t6-18t6------------|
G|--------------------------------------------------------------------------|
D|--------------------------------------------------------------------------|
A|--------------------------------------------------------------------------|
D|--------------------------------------------------------------------------|
end riff.
e|--------------------------------------------------------------------------|
B|--------------------------------------------------------------------------|
G|--------------------------------------------------------------------------|
D|--------------------------------------------------------------------------|
A|5-5-5-5-5-5-5-----5-5-5-5-5-5-5-----7-7-7-7-7-7-7-----8-8-8-8-8-8-8-------|
D|5-5-5-5-5-5-5-5-5-3-3-3-3-3-3-3-3-3-7-7-7-7-7-7-7-7-7-8-8-8-8-8-8-8-8-8---|
pm. . . . . . . . . . . . . . . . . . . . . . . . . . . . . . . . . . . .
end riff 5x(relase palm mute)

Sweep Riff

e|18p15----------15-18p15----------15-17p13----------13-17p13----------13---|
B|-----15------15--------15------15--------15------15--------15------15-----|
G|-------15--15------------15--15------------14--14------------14--14-------|
D|---------17----------------17----------------15----------------15---------|
A|--------------------------------------------------------------------------|
D|--------------------------------------------------------------------------|

e|--------------------------------------------------------------/18p13------|
B|17p14----------14-17p4----------17-18p15----------17-18p15----------15----|
G|-----14------14-------14------14--------15------15--------15----------15--|
D|-------14--14-----------14--14------------15--15------------15------------|
A|---------16---------------16----------------17----------------------------|
D|--------------------------------------------------------------------------|

e|18p15----------15-18p15----------15-17p13----------13-17p13----------13---|
B|-----15------15--------15------15--------15------15--------15------15-----|
G|-------15--15------------15--15------------14--14------------14--14-------|
D|---------17----------------17----------------15----------------15---------|
A|--------------------------------------------------------------------------|
D|--------------------------------------------------------------------------|
                                       |18x||12x||18x|
e|--------------------------------------------------------------------------|
B|17p14----------14-171p14----------14-15t3-17t5-18t6-t18~------------------|
G|-----14------14---------14------14----------------------------------------|
D|-------14--14-------------14--14------------------------------------------|
A|---------16-----------------16--------------------------------------------|
D|--------------------------------------------------------------------------|

Zacky's Part-Guitar Two-Acoustic
I'll Just List The Chords To Use.
Figure Out The Rythm, Not That Hard.

,=flat 
Dm   Fsus2  G5/D    Csus2    B,6   Csus2  Dm

G5   C      F        C/E   Dm    G5     C    F
Verse:x4
Dm      Gm      F     C   Cadd4   C 
Pre-Chorus:
G5   C     F   C/E      Dm     B,
Chorus 1:
D5    F5    G5   C5   B,5   C5    D5
Verse:x4
Pre-Chorus:x1
Chorus 2:
Dm   Fsus2   G5   Csus2   B,6    Csus2   Dm   
Dm   Fsus2   G5/D   Csus2  B,5   C5   

Solo:
F  C   Dm   B,sus2   F   C   Dm   B,sus2    F    C    Dm   B,  F 

Bridge:
C   Dm   F   C   B,
Chorus 2:x2
Riff 1:
Dm   G5    Dm/F    A5    D,5  G5   Dm/F   A5  B,5  G5  Dm/F    A5  B,5   
G5   Dm/F   A5   B,5  G5   Dm    A   B,   G5   Dm   A   D,   
Sweeping Riff:
G5   Dm     A     B,   G5  Dm   A  B,


|tr  trill
|R   gradually release
|ab  already bent
| /  slide up
| \  slide down
| h  hammer-on
| p  pull-off
| ~  vibrato
| +  harmonic
| x  Mute note
===============================================================================


END

+--------------------------------------------------------------------------+
| This file is the author's own work and represents their interpretation   |
| of the song. You may only use this file for private study, scholarship,  |
| or research.                                                             |
+--------------------------------------------------------------------------+



Important: The song above is NOT stored on the Chordie server. The original song is hosted at www.ultimate-guitar.com. Chordie works as a search engine and provides on-the-fly formatting. Chordie does not index songs against artists/composers will. To remove this song please click here.

This song is displayed as text-only. Transposing and tuning is only available for chordpro-songs.

Login - add to songbook

Rating click stars to rate

Layout
Accuracy

SHARE PAGE  




You need to log in to post comments