Guitar Tabs, Chords and Lyrics


Tatsulok   Bamboo



| Ultimate Guitar Tabs Archive - your #1 source for tabs!               |
| http://www.ultimate-guitar.com/                                       |
|                                                                       |
| Over 200,000 guitar, guitar pro and bass tabs! Also lessons, news,    |
| columns and guitar forums!                                            |


Artist: Bamboo
Song: Tatsulok


Song:Tatsulok
Album:We Stand Alone Together
Artist:Bamboo
Date Tabbed:January,2006
Guitar Tabber:Ryan Manongdo/16/m/Philippines
              no_falter0x@yahoo.com(Friendster&YM)
 
For your comments,questions or suggestions,just Post a Comment or PM me.

Gtr.Legends:
~ - let it ring
. - palm muting
b - bend

Gtr.Tuning:Standard(Normal)

Intro:
e|------------------------------------------------|
B|------------------------------------------------|
G|-----2~----------2~---------2~-------2~----4b---|
D|---0~---------0~---------0~-------0~-------2b---|
A|-2~--------2~--------2~--------2~---------------|
E|------------------------------------------------|

Verse 1:Totoy bilisan mo...
e|--------------------------------------------------------------------------------------|
B|---------0-2~-------3---3----------3--------3---3--------3---3----------3-------2-----|
G|----------------------4---2------4---0--------4---0--------4---0------4---0-------0---|
D|--------------------------------------------------------------------------------------|
A|-2~--0~----------2~-----------0~---------2~-----------0~---------------------0~-------|
E|-------------------------------------------------------------------3~-----------------|

Pre-Verse 2:
e|---------------------------|
B|---------------------------|
G|-----2~----------2~---6b---|
D|---0~---------0~------4b---|
A|-2~--------2~--------------|
E|---------------------------|

Verse 2:Totoy makinig ka...
e|----------------------------------------------------------------------------------------------|
B|---------0-2~-------3---3----------3--------3---3--------3---3----------3-------2---------3---|
G|----------------------4---2------4---0--------4---0--------4---0------4---0-------0-----4-----|
D|----------------------------------------------------------------------------------------------|
A|-2~--0~----------2~-----------0~---------2~-----------0~---------------------0~------2~-------|
E|-------------------------------------------------------------------3~-------------------------|

Pre-Chorus:Hindi pula't dilaw...
e|--------------------------------------------------------------------------|
B|------3-----0-----------3-------------------3-------3--------3------------|
G|----4---------0-------4--------4-2--------4-------4---4-0------4--22222---|
D|------------------------------------------------------------------22222---|
A|---------------------------------------2~------0~-----------------00000---|
E|-3~------2~-------3~--------2~-----------------------------2~-------------|
                                                                    .....

Chorus:Habang may tatsulok...
e|-------------------------------------------------|
B|-------------------------------------------------|
G|-4444----------------4~-------2~-------2~---6b---|
D|-4444-4444--555-777--4~-----0--------0------4b---|
A|-2222-4444--555-777--2~---2--------2-------------|
E|------2222--333-555------------------------------|

Verse 3:Ngunit ng...
Play Verse 2

Repeat Pre-Chorus:

Repeat Chorus:

Bridge(Gtr.Adlib):
Gtr.1
e|-------------------------------------------------------|
B|-------------------------------------------------------|
G|-4444---------------------------------4444-------------|
D|-4444-4444-5555-22222-22222-7777-4444-4444-2222-5555---|
A|-2222-4444-5555-22222-22222-7777-4444-2222-2222-5555---|
E|------2222-3333-00000-00000-5555-2222------0000-3333---|

Gtr.2:Insufficient gadgets...

Hindi pula't dilaw...
e|-----------------------|
B|-----------------------|
G|-----------------------|
D|-5555-4444-5555-4444---|
A|-5555-4444-5555-4444---|
E|-3333-2222-3333-2222---|

Hangga't marami ang...
e|-----------------------|
B|-----------------------|
G|-4444------------------|
D|-4444-7777-4444-7777---|
A|-2222-7777-4444-7777---|
E|------5555-2222-5555---|

Habang may tatsulok...
e|--------------------------------------------------------------------------------------|
B|--------------------------------------------------------------------------------------|
G|-4444---------------444444---4444---------------4~-------2~-------2~-----2~------2~---|
D|-4444-4444--555-777-444444---4444-4444-555-777--4~-----0--------0------0-------0------|
A|-2222-4444--555-777-222222---2222-4444-555-777--2~---2--------2------2-------2--------|
E|------2222--333-555---------------2222-333-555----------------------------------------|

End...


Tatsulok Lyrics:

Verse 1:
Totoy bilisan mo, bilisan mo ang takbo
Ilagan ang mga bombang nakatutok sa ulo mo
Totoy tumalon ka, dumapa kung kailangan
At baka tamaan pa ng mga balang ligaw

Verse 2:
Totoy makinig ka, wag kang magpa-gabi
Baka mapagkamalan ka't humandusay dyan sa tabi
Totoy alam mo ba kung ano ang puno't dulo
Ng di matapos-tapos na kaguluhang ito

Pre-Chorus:
Hindi pula?t dilaw tunay na magkalaban
Ang kulay at tatak ay di s'yang dahilan
Hangga't marami ang lugmok sa kahirapan
At ang hustisya ay para lang sa mayaman

Chorus:
Habang may tatsulok at sila ang nasa tuktok
Di matatapos itong gulo...

Verse 3:
iligtas ang hininga,kay raming mga tao,
At ang dating munting bukid, ngayo'y sementeryo
Totoy kumilos ka, baliktarin ang tatsulok
Tulad ng dukha, nailagay mo sa tuktok

Repeat Pre-Chorus:
Repeat Chorus:

Repeat Pre-Chorus:
Repeat Chorus:

Outro:
Di matatapos itong gulo


END

+--------------------------------------------------------------------------+
| This file is the author's own work and represents their interpretation   |
| of the song. You may only use this file for private study, scholarship,  |
| or research.                                                             |
+--------------------------------------------------------------------------+



Important: The song above is NOT stored on the Chordie server. The original song is hosted at www.ultimate-guitar.com. Chordie works as a search engine and provides on-the-fly formatting. Chordie does not index songs against artists/composers will. To remove this song please click here.

This song is displayed as text-only. Transposing and tuning is only available for chordpro-songs.

Login - add to songbook

Rating click stars to rate

Layout
Accuracy

SHARE PAGE  




You need to log in to post comments