Chordie logo


   Unknown


Bright Eyes
Spent on rainy days
Tabbed by: sisi

start at 0:22
G---------------------------------------|
D--------------6-4----4-6-7-6-----------|
A-----4-----4-------------------4-------|
E---------------------------------4-----|
I think I print it in.......

Refrain:
G---------------------------------------------------------------------|
D---4-4-4--444-----2-2-2--222---4-4-4-444----2-1--2-1---2---2---------|
A---------------------------------------------------------4---4--4----|
E---------------------------------------------------------------------|


G-----------------------------------------------------------------------------|
D-----------------------------------------------------------------------------|
A---4---4---4--------------------------4--4--4--4-----------------------------|
E-------------2---2--2-4-5-4----5-4-----------------2--2--2--2----5--4---5--4-|
 know I'm lazy with...   		Your always saying...

G---------------------------------------|
D-----------6-4-----4-6-7-6-------------|
A--4--4---4-------------------44--------|
E---------------------------------44----|
Now its easy....		

Refrain:
G------------------------------------------------------------------------|
D--4-6-4--646----2-4-2--424---4-6-4--646---------------------------------|
A------------------------------------------------------------------------|
E-----------------------------------------5--54--5--54--5--54--5--5420---|

G-------------------------|
D-------------------------|  4x
A------------44444444-----|
E--22222222---------------|
I'll be anything....

G-----------------------------------|
D-----------------------------------|
A------------44444444-------4-3-----|
E--22222222-------------------------|

I think there is one note which is not correct, the rest does at least sound good! ;-)


Important: The song above is NOT stored on the Chordie server. The original song is hosted at www.ultimate-guitar.com. Chordie works as a search engine and provides on-the-fly formatting. Chordie does not index songs against artists/composers will. To remove this song please click here.

This song is displayed as text-only. Transposing and tuning is only available for chordpro-songs.

Login - add to songbook

Rating click stars to rate

Layout
Accuracy

Jango Player

SHARE PAGE  




You need to log in to post comments