Chordie logo

Suteki Da Ne   Nobuo Uematsu



| Ultimate Guitar Tabs Archive - your #1 source for tabs!               |
| http://www.ultimate-guitar.com/                                       |
|                                                                       |
| Over 200,000 guitar, guitar pro and bass tabs! Also lessons, news,    |
| columns and guitar forums!                                            |


Artist: Nobuo Uematsu
Song: Suteki Da Ne


i love this song so much i hope you guys enjoy it.... im pretty sure this is right


e------1-----0-------------------------0-----0--------------------------------|
B----------------1-3-----1---1------------------------------------------------|
G--2-3---0-2-----------------2---2-------------2-----0-2----2--0------2---3-2-|
D--------------3-----2-3-----2---------------------------0--------2-----------|
A-------------------------------------------------------------------3---------|
E-----------------------------------------------------------------------------|

e----------0---3-1--0-----1-3-5---------1-0-------|
B--3-----3-------------3--------------------3-1-3-|
G------2------------------------------2-----------|
D-------------------------------------------------|
A-------------------------------------------------|
E-------------------------------------------------|

e--------------------------------------------------------|
B--------------------------------------------------------|
G----------------0-2---3-2-0-----2---0-------------------|
D--0---2-3-2---3-----------------------3-2-----3---2-0---|
A------------------------------------------------------3-|
E--------------------------------------------------------|

e------------------------------------------------------|
B------------------------------------------------------|
G----------------0-2---3-2-0-----2---0-----------------|
D--0---2-3-2---3-----------------------3-2---------0-0-|
A--------------------------------------------3---3-----|
E------------------------------------------------------|

Repeat

Then the drums come in

e------5---8--------5---------------5---8-------------|
B--6-8--------8---------8-6---6-6-8---------8---6-5---|
G---------------------------7-----------------------7-|
D-----------------------------------------------------|
A-----------------------------------------------------|
E-----------------------------------------------------|

e------5---8--------5---------------5---8---12---8---10-|
B--6-8--------8---------8-6---6-6-8---------------------|
G---------------------------7---------------------------|
D-------------------------------------------------------|
A-------------------------------------------------------|
E-------------------------------------------------------|

e--10---8--------------------8-------------------------|
B-----------11---10--------------10---5-----6-6--------|
G-----------------------------------------7------------|
D------------------------------------------------------|
A------------------------------------------------------|
E------------------------------------------------------|

e--5-------------5------------5---12---8---10-|
B------8---6---8------------------------------|
G------------------5--------------------------|
D---------------------------------------------|
A---------------------------------------------|
E---------------------------------------------|


if you have any questions email me at ambrayjustin@yahoo.com


END

+--------------------------------------------------------------------------+
| This file is the author's own work and represents their interpretation   |
| of the song. You may only use this file for private study, scholarship,  |
| or research.                                                             |
+--------------------------------------------------------------------------+



Important: The song above is NOT stored on the Chordie server. The original song is hosted at www.ultimate-guitar.com. Chordie works as a search engine and provides on-the-fly formatting. Chordie does not index songs against artists/composers will. To remove this song please click here.

This song is displayed as text-only. Transposing and tuning is only available for chordpro-songs.

Login - add to songbook

Rating click stars to rate

Layout
Accuracy

SHARE PAGE  



You need to log in to post comments