Guitar Tabs, Chords and Lyrics


Right In Two   Tool



| Ultimate Guitar Tabs Archive - your #1 source for tabs!               |
| http://www.ultimate-guitar.com/                                       |
|                                                                       |
| Over 200,000 guitar, guitar pro and bass tabs! Also lessons, news,    |
| columns and guitar forums!                                            |


Artist: Tool
Song: Right In Two


0:00 - 1:19
Intro (clean w/ delay)
e-|--------------------------------------------------------------|
B-|-------------------------------------------------------------*|
G-|--------------------------------------------------------------|
D-|------------7/--------------10--------------7----------12-----|
A-|--------5---------------8---------------5--------------------*|
D-|--0---------------8---------------5---------------10----------|

1:19 - 1:42
Riff 1 (all palm muted)
e-|--------------------------------------------------------------|
B-|-------------------------------------------------------------*|
G-|------------7---------------7---------------7-----------------|
D-|--------------------------------------------------10----------|
A-|--------8---------------8---------------8--------------10----*|
D-|--0---------------0---------------0---------------------------|

1:42 - 2:22
Riff 2 (every other note is a harmonic)
e-|--------------------------------------------------------------|
B-|-------------------------------------------------------------*|
G-|-----------------------------------------------------------|
D-|----------------------------------12-----------------------|
A-|----------------------------------------------------------*|
D-|--0---------8---------5---------10----------------------------|

2:22 - 2:28
Variation on Riff 2 (delay off)
e-|--------------------------------------------------------------|
B-|--------------------------------------------------------------|
G-|--------------------------------------------------------------|
D-|--------------------------------------------------------------|
A-|-------0----1--------------3~------5h6---5~-------------------|
D-|--0--------------3----5---------------------------------------|

2:28 - 3:12
(Back to Riff 1)

3:12 - 3:38
Riff 3 (play one measure, then play Intro)
e-|--------------------------------------------------------------|
B-|-------------------------------------------------------------*|
G-|--------------------------------------------------------------|
D-|--------------------------------------------------------------|
A-|-----------0-----1-----3--1----------3----7----5-------------*|
D-|--0-----5-----0--------------0--5-----------------------------|

3:38 - 4:00
Chorus - Distortion
e-|--------------------------------------------------------------|
B-|-------------------------------------------------------------*|
G-|--------------------------------------------------------------|
D-|--7----7--7----10-------12----12----7-------------------------|
A-|--5----5--5----8--------10----10----5------------------------*|
D-|--0----0--0----8--------10----10----5-------------------------|

4:00 - 5:23
Badass tabla solo

5:23 - 5:34
Bridge (distortion)


e-|--------------------------------------------------------------|
B-|-------------------------------------------------------------*|
G-|--------------------------------------------------------------|
D-|--------------------------------------------------------------|
A-|-------------------------------------------------------------*|
D-|--0-----10--0--10--0-----10--0--10--0-----10--0--10--0----10~-|

5:34 - 5:45
Bridge Riff 2
e-|--------------------------------------------------------------|
B-|-------------------------------------------------------------*|
G-|--------------------------------------------------------------|
D-|--------------------------------------------------------------|
A-|---------------3---------------3---------------3-----3~------*|
D-|--0-----2-3-5-----0-----2-3-5-----0-----2-3-5-----0-----------|

5:45 - 6:04
Bass & Drum breakdown

e-|--------------------------------------------------------------
B-|--------------------------------------------------------------
G-|--------------------------------------------------------------
D-|--------------------------------------------------------------
A-|--------------------------------------------------------------
D-|--0-----10-10-0-0-10-10-0-----10-10-0-0-10-10-0-----10-10-0-0-

e-|--------------------------------------------------------------|
B-|-------------------------------------------------------------*|
G-|--------------------------------------------------------------|
D-|--------------------------------------------------------------|
A-|-------------------------------------------------------------*|
D-|--10-10-0----10~----------------------------------------------|

6:15 - 6:24
e-|--------------------------------------------------------------
B-|--------------------------------------------------------------
G-|--------------------------------------------------------------
D-|--------------------------------------------------------------
A-|-------0h3--5p3--5p3-------0h3--5p3--5p3-------0h3--5p3--5p3--
D-|--0--------------------0-------------------0------------------

e-|--------------------------------------------------------------|
B-|-------------------------------------------------------------*|
G-|--------------------------------------------------------------|
D-|--------------------------------------------------------------|
A-|-------3~----------------------------------------------------*|
D-|--0-----------------------------------------------------------|

6:24 - 6:34
Make vocal sounds w/ wah pedal
e-|--------------------------------------------------------------|
B-|-------------------------------------------------------------*|
G-|--------------------------------------------------------------|
D-|--------------------------------------------------------------|
A-|---3---5-------3---5-------3---5-------3---5-----------------*|
D-|--------------------------------------------------------------|

6:34 - 6:44
(slowly roll upwards on the wah towards the treble side)
e-|--------------------------------------------------------------|
B-|-------------------------------------------------------------*|
G-|--------------------------------------------------------------|
D-|--------------------------------------3-----------------------|
A-|------3---5-------6-------3---5-----------5------------------*|
D-|--0-----------0-------0-----------0---------------------------|

6:44 - 6:59
Same lick but w/ power chords (wah off)
e-|--------------------------------------------------------------|
B-|-------------------------------------------------------------*|
G-|--------------------------------------------------------------|
D-|------5---7-------8-------5---7------10---7-------------------|
A-|------3---5-------6-------3---5-------8---5------------------*|
D-|--0-----------0-------0-----------0---------------------------|

6:59 - 7:14
Play Bridge

7:14 - 7:20
Bridge Riff 2

7:20 - 7:25
Riff 3 (play just once)

7:25 - 7:33
e-|--------------------------------------------------------------|
B-|-------------------------------------------------------------*|
G-|--------------------------------------------------------------|
D-|------------7/--------------10---------5/-----7---------------|
A-|--------5---------------8--------------3/-----5--------------*|
D-|--0---------------8---------------3-----------5---------------|

7:33 - 7:52
Chorus

7:53
Intro (1 time)

7:58 - 8:20
Riff 1


END

+--------------------------------------------------------------------------+
| This file is the author's own work and represents their interpretation   |
| of the song. You may only use this file for private study, scholarship,  |
| or research.                                                             |
+--------------------------------------------------------------------------+



Important: The song above is NOT stored on the Chordie server. The original song is hosted at www.ultimate-guitar.com. Chordie works as a search engine and provides on-the-fly formatting. Chordie does not index songs against artists/composers will. To remove this song please click here.

This song is displayed as text-only. Transposing and tuning is only available for chordpro-songs.

Login - add to songbook

Rating click stars to rate

Layout
Accuracy

SHARE PAGE  




You need to log in to post comments