eToCache5 = ""; ?> Get Em Out By Friday by Genesis - guitar chords, guitar tabs and lyrics - chordie

Get Em Out By Friday

Genesis

|-------/----------------------9--/--12--9---------------|

|--14~--/---------------9-10-12---/--------12-10-12\5~---|
|-------/-----------9-11----------/----------------------|
|-------/----9-11-12--------------/----------------------|
|-------/--12-----keyboard--------/----------------------|
|-------/-------------------------/----------------------|
|-------/----------------------9--/--12--9-----------|
|--14~--/---------------9-10-12---/--------12-10-9~--|
|-------/-----------9-11----------/------------------|
|-------/----9-11-12--------------/------------------|
|-------/--12-----keyboard--------/------------------|
|-------/-------------------------/------------------|

 DCBmDmE
|--------9--10-12--14-15~--------------12--14-16-17~---19~--|
|--10--12---------------------12-14--15---------------------|
|-----------------------------------------------------------|
|-----------------------------------------------------------|
|-----------------------------------------------------------|
|-----------------------------------------------------------|


N.C.
|----------------------------------------------------------------------------|
|--10--------------------------10--------------------------------------------|
|-------7---9------7--9--7----------7---9------7--9--7--7--7--7--7~--5~--4~--|
|--------------9---------------------------9---------------------------------|
|----------------------------------------------------------------------------|
|----------------------------------------------------------------------------|


JOHN PEBBLE OF STYX ENTERPRISES
(no guitar)

"Get 'em out by Friday!
You don't gewt paid till the last one's well on his way.
Get 'em out by Friday!
It's important that we keep to schedule, there must be no delay."

MARK HALL OF STYX ENTERPRISES (OTHERWISE KNOWN AS 'THE WINKLER')

 AmDm
|-----0-----0-----------------|
|----1-----1------1h3---1h3---|
|--2-----4----4-2-----2-----2-|   x 6
|-----------------------------|
|-----------------------------|
|-----------------------------|


 AmDm
"I represent a firm of gentlemen who recently purchased this
 AmGDm
house and all the others in the road,
 AmDmAmGDm
In the interest of humanity we've found a better place for you to go-go-go."

MRS. BARROW (A TENANT)
B--10-10--| x16 (turn volume from 0 gradually up 8 times, and then again)

"Oh no, this I can't believe,
Oh Mary, they're asking us to leave."

MR. PEBBLE
(hardly detectable guitar on last bit)

"Get 'em out by Friday!
I've told you before, 's good many gone if we let them stay.
And if it isn't easy,
You can squeeze a little grease and our troubles will soon runaway."

MRS. BARROW

|--------------|
|-----------0--|
|-----1--------|  x 12
|----2--2--2--2|
|--0-----0-----|
|--------------|


 AE
"After all this time, they ask us to leave,
 AE
And I told them we could pay double the rent.

|-----------7--|
|-----7--------|
|----7--7--7--7|  x 6
|--0-----0-----|
|--------------|
|--------------|


 DC
 I don't know why it seemed so funny,
 BmA
 Seeing as how they'd take more money.

|--------------|
|-----------0--|
|-----1--------|  x 12
|----2--2--2--2|
|--0-----0-----|
|--------------|


 AE
 The winkler called again, he came here this morning,
 AE
with four hundred pounds and a photograph of the place he has found.

|-----------7--|
|-----7--------|
|----7--7--7--7|  x 6
|--0-----0-----|
|--------------|
|--------------|


 DC
 A block of flats with central heating.
 BmAm
 I think we're going to find it hard."

MR. PEBBLE
(no guitar, except for last bit)

"Now we've got them!
I've always said that cash cash cash can do anything well.
Work can be rewarding
When a flash of intuition is a gift that helps you
excel-sell-sell."

MR. HALL

 AmDm
|-----0-----0-----------------|
|----1-----1------1h3---1h3---|
|--2-----4----4-2-----2-----2-|   x 6
|-----------------------------|
|-----------------------------|
|-----------------------------|


 AmDm
"Here we are in Harlow New Town, did you recognise your block
 AmGDm
across the square, over there,
 AmDm
 Sadly since last time we spoke, we've found we've had to raise the
 AmGDm
rent again, just a bit."

MRS. BARROW
B--10-10--| x16 (turn volume from 0 gradually up 8 times, and then again)

"Oh no, this I can't believe
Oh Mary, and we agreed to leave."

(a passage of time)

|---------------------------------------------------------------|
|-------------------------------------10~---12(13)12(13)12-10~--|
|-----------------------7~---7(9)7(9)7--------------------------|
|--7-7-7~---9(10)9(10)-9----------------------------------------|
|---------------------------------------------------------------|
|---------------------------------------------------------------|
|--12-----------------------------------------------|
|---13----------------------------------------------|
|----14---------------------------------------------|
|-----15p14-15-12-14-9-10--12~--10~--9~--9~--12~~~--|
|---------------------------------------------------|
|---------------------------------------------------|


(flute & keyboard arranged for guitar, I.E. sometimes hard to play)
4:57
|-----------------------------------17-15-14-12---------------------------|
|--14--12-14--12-15---14--12-14--12--------------15-14-15--14---12-14-15--|
|-------------------------------------------------------------------------|
|-------------------------------------------------------------------------|
|-------------------------------------------------------------------------|
|-------------------------------------------------------------------------|
|---------------12-14--------------------------------------/22~--|
|--11-12-14--15--------10-12--13--11--10---15--13-15-15~---------|
|---------------------------------------12-----------------------|
|----------------------------------------------------------------|
|----------------------------------------------------------------|
|----------------------------------------------------------------|


5:43

|-----------------------------------13--12-10-12--10----10---------|
|--13--12-13--12-15---13--12-13--12-----------15--13-13-----13-11--|
|----------------------------------------------------15-14--12-10--|
|------------------------------------------------------------------|
|------------------------------------------------------------------|
|------------------------------------------------------------------|
|------------------------------------------10-------------------|
|--10--------------------------10-11-10-------10h11p10------10--|
|--10-12-10-9----------9-10-12----------12----------9-10-12-----|
|-----14-12---12-10-12------------------------11-12-------------|
|-------------------14~--------------13~------------------------|
|---------------------------------------------------------------|
|-----------12--12//--|
|--11-10----13-14~----|
|--------12-----------|
|---------------------|
|---------------------|
|---------------------|


18/9/2012 T.V. FLASH ON ALL DIAL-A-PROGRAM SERVICES
(no guitar)

 DmAmBbF
 This is an announcement from Genetic Control:
 GGmAGm
"It is my sad duty to inform you of a four foot restriction on
 CA
humanoid height."

EXTRACT FROM CONVERSATION OF JOE ORDINARY IN LOCAL PUBORAMA
(guitar strums chord on high frets)

 DmAmBbFG
"I hear the directors of Genetic Control have been buying all the
 GmAGmCA
properties that have recently been sold, taking risks oh so bold.
 DmAmBbFG
It's said now that people will be shorter in height, they can fit
 GmAGm
twice as many in the same building site.
 CA
(they say it's alright),
 DmAmBbF
Beginning with the tenants of the town of Harlow,
 GGmAGmCA
in the interest of humanity, they've been told they must go-go-go-go."

 DmAmBbFGGmAGmCADCBmAm

SIR JOHN DE PEBBLE OF UNITED BLACKSPRINGS INTERNATIONAL
(no guitar)

"I think I've fixed a new deal
A dozen properties--we'll buy at five and sell at thirty four,
Some are still inhabited,
It's time to send the winkler to see them,
he'll have to work some more."

N.C.
|-------------------------------------------------------|
|--10-----------10-----------10----------10-------------|
|------7--9---------7--9---------7--9--------7--9---7~--|
|-----------9------------9------------9-----------9-----|
|-------------------------------------------------------|
|-------------------------------------------------------|


MEMO FROM SATIN PETER OF ROCK DEVELOPMENT LTD.
(no guitar)

 GDmCAmF#mE
With land in your hand, you'll be happy on earth      
N.C. C D Bb Am D
Then invest in the Church for your heaven.
-------------------------------------------------------------------------------

7~ hold (longer than other notes)
7h9 hammer-on
9p7 pull-off
7(9) bend
(9)7 release
(9)r release
7/9 slide up
9\7 slide down
<7> natural harmonics
7tr9 trill

END

+--------------------------------------------------------------------------+

| This file is the author's own work and represents their interpretation |
| of the song. You may only use this file for private study, scholarship, |
| or research. |
+--------------------------------------------------------------------------+


Ultimate-Guitar.Com © 2005


A Am Bb Bm C D Dm E F F#m G Gm
variations - click chord images
Transpose chords:
Tuning:
Cool service:
View: Size:
A  A  A
Rating:
Layout:
  • Currently 2/5 Stars.
  • 1
  • 2
  • 3
  • 4
  • 5
 
Accuracy:
  • Currently 0/5 Stars.
  • 1
  • 2
  • 3
  • 4
  • 5
 
click stars to rate
Chordie recommends:
Learn how to play guitar at JamPlay.com
Songbook:
Login to add this song to your songbook
Support the artist
Preview/buy this song
MSN Music
Why this non-profit ad?

 
login to add comments/video/corrections