"yes"; ?> 14 by Silent Sanctuary - guitar chords, guitar tabs and lyrics - chordie
 14
 Silent Sanctuary
By: Dondi Surio
hempboi4118@yahoo.com
kuyado_18@yahoo.com

 GD/F#EmCDAmBm
e--3---3-----3---3---3----3---3--|
B--3---3-----3---3---3----1---3--|
G--0---2-----0---0---2----0---2--|
D--0---0-----2---2---0----2---0--|
A--2---x-----2---3---x----0---2--|
E--3---2-----0---x---x----x---x--|


INTRO G D/F# Em C(2x) D

Verse 1
 GEm
Inaayos ko ang iyong isipan
 CD
Ngunit hindi ka nakikinig
 GEm
Lahat na ng bagay ay aking ginawa
 CD
Ngunit wala pa rin

Refrain 1
 EmBm
Ilang beses ko pa bang sasabihin
 GD/F#Em
Na wala ng kwenta ang nakaraan
 CAmD
Pero iyong pinipilit     

CHORUS
 GD/F#
Ikaw lang ang nais kong makasama
 EmC
Wala na akong gusto pang balikan
 DGD/F#
Kahit ako'y papiliin ikaw ay umasang
 EmCD
Gusto kong makapiling   

Verse 2
 GEm
Lagi na lang tayong nagaaway
 CD
Kahit hindi dapat pag-awayan
 GEm
Tuwing ika'y lumuluha ako'y nasasaktan
 CD
Pag nakikita kang ganyan

Refrain 2
 EmBm
Sige na tahan na
 GD/F#Em
Dahil mahal na mahal kita
 CAmD
Ikaw lang kasi maniwala ka     

(Chorus)

Bridge
 CC/BAm
Pero bakit ganyan
 CC/BAm
Tayo ay napaglaruan
 CC/BAm
Siguro nga'y sadyang ganyan

Adlib: G D/F# Em C D 2x
 GD/F#EmCD
e---------------------------------------------------------------------------|
B-------8-8------------8-8--------------------------------------------------|
G-4-5-7-----7--5-4-5-7-----7-5-4-5p4--------------7-------------------------|
D------------------------------------5-----5-7-7s9-9p7s5-7s9-7s5---------5--|
A--------------------------------------5h7----------------------7-5-5h7-----|
E---------------------------------------------------------------------------|


 GD/F#EmCD
e-------------------10s12-10-8-7-8p7------(12)--15-15—17-17-15-17-19--------|
B----8-10-10s12-10p8----------------8-8s10----------------------------------|
G-7h9-----------------------------------------------------------------------|
D---------------------------------------------------------------------------|
A---------------------------------------------------------------------------|
E---------------------------------------------------------------------------|


(Chorus)

 EmDC
Ibibigay ko ang lahat
 EmDC
Pati na rin ang iyong pangarap
 EmDC
Sasamahan kita kahit saan
 CmD
Kahit saan  

(Chorus)

END

+--------------------------------------------------------------------------+

| This file is the author's own work and represents their interpretation |
| of the song. You may only use this file for private study, scholarship, |
| or research. |
+--------------------------------------------------------------------------+


Ultimate-Guitar.Com © 2005


Am Bm C C/B Cm D D/F# Em G
variations - click chord images
Transpose chords:
Tuning:
Cool service:
View: Size:
A  A  A
Rating:
Layout:
  • Currently 4.3/5 Stars.
  • 1
  • 2
  • 3
  • 4
  • 5
 
Accuracy:
  • Currently 4.1/5 Stars.
  • 1
  • 2
  • 3
  • 4
  • 5
 
click stars to rate
Chordie recommends:
Check out JamPlay.com for online video guitar lessons
Songbook:
Login to add this song to your songbook
Support the artist
Preview/buy this song
MSN Music
Why this non-profit ad?

 
login to add comments/video/corrections