Chordie logo

Good Left Undone   Rise Against



| Ultimate Guitar Tabs Archive - your #1 source for tabs!               |
| http://www.ultimate-guitar.com/                                       |
|                                                                       |
| Over 200,000 guitar, guitar pro and bass tabs! Also lessons, news,    |
| columns and guitar forums!                                            |


Artist: Rise Against
Song: Good Left Undone


Rise Against -- The Good Left Undone
Bass Tab

Tabbed by -- Closet
Email -- archangel-17@hotmail.com

Db tuning

[guitar intro]

Verse (2x)

Gb|-----------------------------------------------------|
Db|-----------------------------------------------------|
Ab|-----------------------------------------------------|
Db|-12-12-12-12-12-12-12-12-12-12-12-12-12-12-12-12-12--|

Gb|----------------------------------|
Db|----------------------------------|
Ab|----------------------------------|
Db|-8-8-8-8-8-8-8-8-8-8-8-8-8-8-8-8--|

Gb|----------------------------------------------------|
Db|----------------------------------------------------|
Ab|----------------------------------------------------|
Db|-15-15-15-15-15-15-15-15---10-10-10-10-10-10-10-10--|

Gb|--------------------------------------------|
Db|--------------------------------------------|
Ab|--------------------------------------------|
Db|-17-17-17-17-17-17-17--14--14--15-14-14-14--|

Pre-Chorus (1x)

Gb|--------------------------------------------------------------------|
Db|--------------------------------------------------------------------| 2x
Ab|--------------------------------------------------------------------|
Db|-20---19---17---10---12--12-12-12-12-12-12-12-12-12-12-12-12-12-12--|

Gb|-----------------------------------------------------------------|
Db|-----------------------------------------------------------------|
Ab|-----------------------------------------------------------------|
Db|-20---19---17---10---3--3-3-3-3-3-3--5--5-5-5-5-5-5-5--8---7---5-|

Chorus 1 (1x)

Gb|-----------------------------------------|
Db|-----------------------------------------|
Ab|-----------------------------------------|
Db|-12-12-12-12-12-12-12-12-3-3-3-3-3-3-5-7-|

Gb|-----------------------------------------|
Db|-----------------------------------------|
Ab|-----------------------------------------|
Db|-10-10-10-10-12-12-10-10-8-8-8-8-8-8-8-8-|

Gb|-----------------------------------------|
Db|-----------------------------------------|
Ab|-----------------------------------------|
Db|-12-12-12-12-12-12-12-12-3-3-3-3-3-3-5-7-|




Gb|-------------------------------------|
Db|-------------------------------------|
Ab|-------------------------------------|
Db|-10-10-10-10-12-12-10-10-8-8-8-8-8---|

[guitar intro]

Verse (2x)

Pre-chorus (1x)

Chorus 2 (2x)

Gb|-----------------------------------------|
Db|-----------------------------------------|
Ab|-----------------------------------------|
Db|-12-12-12-12-12-12-12-12-3-3-3-3-3-3-5-7-|

Gb|-----------------------------------------|
Db|-----------------------------------------|
Ab|-----------------------------------------|
Db|-10-10-10-10-12-12-10-10-8-8-8-8-8-8-8-8-|


Bridge -- Same as Chorus 2 (2x)

Solo (2x -- cut off at * the second time)

Gb|------------------------------------|
Db|------------------------------------|
Ab|------------------------------------|
Db|-12-12---12-12-12---12-3-3---3-3-3--|

Gb|-----------------------------------------|
Db|-----------------------------------------|
Ab|-----------------------------------------|
Db|-3-10-10---10-10-10---10-8-8---8-8*8---8-|

Chorus 2 (1x)

Chorus 1 (1x)


That's all.

This is my first tab, tell me how you like it!

END

+--------------------------------------------------------------------------+
| This file is the author's own work and represents their interpretation   |
| of the song. You may only use this file for private study, scholarship,  |
| or research.                                                             |
+--------------------------------------------------------------------------+



Important: The song above is NOT stored on the Chordie server. The original song is hosted at www.ultimate-guitar.com. Chordie works as a search engine and provides on-the-fly formatting. Chordie does not index songs against artists/composers will. To remove this song please click here.

This song is displayed as text-only. Transposing and tuning is only available for chordpro-songs.

Login - add to songbook

Rating click stars to rate

Layout
Accuracy

SHARE PAGE  



You need to log in to post comments