Guitar Tabs, Chords and Lyrics


Trees Get Wheeled Away   Bright Eyes



| Ultimate Guitar Tabs Archive - your #1 source for tabs!               |
| http://www.ultimate-guitar.com/                                       |
|                                                                       |
| Over 200,000 guitar, guitar pro and bass tabs! Also lessons, news,    |
| columns and guitar forums!                                            |


Artist: Bright Eyes
Song: Trees Get Wheeled Away


Song: Trees Get Wheeled Away
Artist: Bright Eyes
Tabbed By: Valerie Louie
e-mail: v_vengeance6661@yahoo.com

Intro
G|-----------------------------------------------------|
D|-------------------------------------------------6---|
A|--4-4-4h6-----6-------4-4-4-------------44-4h6-----4-|
E|----------4-4---4-3h4-------222-4-2-1h2--------44----| x3

Chorus
G|------------------------------------------------------------------|
D|-------467643-----------------------------------------------------|
A|--------------44-4h6--------4444--------444444----------6666------|
E|-222222--------------44-3h4------222222--------44444444------4444-| x2

Bridge
G|------------------------------------------------------------------------------------|
D|----------------------------666-764-------------------------666-764-----------------|
A|-666666666666--------44-4h6----------4-4-4h6--------4-4-4h6---------44-4h6----------|
E|--------------444444-------------------------444444------------------------44444----|

G|-----------|
D|-----------|
A|-----------|
E|-6~---4~---|

Intro
G|------------------------------------------------------------------------|
D|--------------------------------------------------------------------6---|
A|--4-4-4h6-----6-------4-4-4-------------44-4h6----6-------44-4h6------4-|
E|----------4-4---4-3h4-------222-4-2-1h2--------44---4-3h4--------44-----|x3

Chorus x2

(3:34)
G|-------------------------------|
D|-------------------------------|
A|---------------------------4~--|
E|-666666666666-44444444444------|

G|------------------------------------------|
D|-----467643-------------------------------|
A|------------4~----------4~---------6~-----|
E|-2~------------4~---2~-----4444444----4---|

Ending
G|-------------------------------|
D|-------------------------------|
A|---------------------------4~--|
E|-666666666666-44444444444------|

END

+--------------------------------------------------------------------------+
| This file is the author's own work and represents their interpretation   |
| of the song. You may only use this file for private study, scholarship,  |
| or research.                                                             |
+--------------------------------------------------------------------------+



Important: The song above is NOT stored on the Chordie server. The original song is hosted at www.ultimate-guitar.com. Chordie works as a search engine and provides on-the-fly formatting. Chordie does not index songs against artists/composers will. To remove this song please click here.

This song is displayed as text-only. Transposing and tuning is only available for chordpro-songs.

Login - add to songbook

Rating click stars to rate

Layout
Accuracy

SHARE PAGE  




You need to log in to post comments