Inaudible Melodies

Jack Johnson

----------------------------------------------------------------------------

----------------------------------------------------------------------------

 F#BC#BbG#C#7
e|-2-|-2-|-4-|-1-|-4-| |---|
B|-2-|-4-|-6-|-3-|-4-| |---|
G|-3-|-4-|-6-|-3-|-5-| |-4-|
D|-4-|-4-|-6-|-3-|-4-| |-3-|
A|-4-|-2-|-4-|-1-|-6-| |-4-|
E|-2-|-x-|-x-|-x-|-4-| |---|


INTRO(part one):

 F#C#7A#B
e|--2--2-2h4p2---2-------|--6---6-6h9p6---6----6--|--7--7-7h9p7---7----|
B|--2----------2---------|--6h7---------6----x-6--|--7----------7----x-|
G|--3---------------x-4--|--6h7--------------x-7--|--8---------------x-|
D|--4---------------x-3--|--6h8--------------x-8--|--9---------------x-|
A|--4---------------x-4--|--6----------------x-8--|--9---------------x-|
E|--2--------------------|--6------------------6--|--7-----------------|
e|--6---4--|
B|--6---4--|
G|--7---4--|  (let last chord ring)
D|--8---4--|
A|--8---6--|
E|--6---4--|


INTRO(part two):

e|------------------2--5p2--2-------------------|---------------------|
B|-----------/5-/5--2---------2-----------------|--/5-/5--------------|
G|-----------/6-/6--2-----------4-4--2-2--------|--/6-/6---4b-2-------|
D|---------------------------------------2-3-4--|---------------4-2---|
A|----------------------------------------------|---------------------|
E|--0-1-2---------------------------------------|---------------------|


 C#7
e|----------------------------2--5p0--------|
B|----------------------------2-------------|
G|--2h4-4--2-2---------/5-/5--2--------4----| (let last chord ring)
D|--------------2-3-4--/6-/6-----------3----|
A|-------------------------------------4----|
E|------------------------------------------|


VERSE 1:
 F#B
e|-------------2---------|-------------------2----------|
B|-------------2---------|-------------------4---------o|
G|-------------3--Strum--|-------------------4--Strum---| (repeat once)
D|------4------4----F#---|------4--4--4------4----B-----|
A|--/6---------4---------|--/6---------------2---------o|
E|--------2----2---------|--------------2----x----------|


Brushfire fairytales, itsy bitsy diamond wells.
Big fat hurricanes, yellow bellied given names.

 C#BF#C#7
e|-------------4---------|---2------------------2---------|-----|
B|-------------6---------|---4------------------2---------|-----|
G|-------------6--Strum--|---4--Strum-----------3--Strum--|--4--|(let
D|-----4-------6----C#---|---4----B-------------4----F#---|--3--|   ring)
A|--/6----6-4--4---------|---2------------------4---------|--4--|
E|-------------x---------|---x------------------2---------|-----|


Where shortcuts can... and in the end...to rebound...

 F#
  Well dust off your thinking caps
 B
  solar powered plastic plants
 F#
  Pretty pictures of things we ate
 B
  we are only what we hate
 C#
  But in the long run we have found
 B
  silent films are full of sound
F# C#7 (let ring)
Inaudibly free

CHORUS:

 F#
  Slow down everyone
 Bb
  you're moving too fast
 B
  Frames can't catch you when you're
 G#7
  moving like that

VERSE:

 F#
  Inaudible melodies
 Bb
  Severe narrational strategies
 B
  Unobtrusive tones help to
 G#7
  notice nothing but the zone
 F#
  Of visual relevancy
 Bb
  Frame lines tell me what too see
 B
  Chopping like an axe and maybe
 G#7
  Eisenstein should just relax

CHORUS:

 F#
  Slow down everyone
 Bb
  you're moving too fast
 B
  Frames can't catch you when you're
 G#7
  moving like that

SOLO:

e|--11-14-11-----11-|--11-14-11-------|--11-14-11-------|-11-11-11-11-14\-|
B|--x---------11----|--x--------14-11-|--x--------14-12-|-x---------------|
G|------------------|-----------------|-----------------|-----------------|
D|------------------|-----------------|-----------------|-----------------|
A|------------------|-----------------|-----------------|-----------------|
E|------------------|-----------------|-----------------|-----------------|


VERSE: (strike all chord in this part once, then each one ring)

 F#
  Well Plato's cave is full of freaks
 Bb
  demanding refunds for the things they've seen
 B
  I wish they could believe
 G#7G7
  In all the things that never made the screen and

Chorus:

 F#
  Slow down everyone
 Bb
  you're moving too fast
 B
  Frames can't catch you when you're
 G#7
  moving like that

(REPEAT CHORUS)

OUTRO:

 F#C#7A#B
e|--2--2-2h4p2---2-------|--6---6-6h9p6---6----6--|--7--7-7h9p7---7----|
B|--2----------2---------|--6h7---------6----x-6--|--7----------7----x-|
G|--3---------------x-4--|--6h7--------------x-7--|--8---------------x-|
D|--4---------------x-3--|--6h8--------------x-8--|--9---------------x-|
A|--4---------------x-4--|--6----------------x-8--|--9---------------x-|
E|--2--------------------|--6------------------6--|--7-----------------|


 F#
e|--6---4--|   |--2--|
B|--6---4--| p |--2--|
G|--7---4--| a |--3--|  (let last chord ring)
D|--8---4--| u |--4--|
A|--8---6--| s |--4--|
E|--6---4--| e |--2--|


****************************************************************************
Thats it. Try to play this song with a little funk, like Jack does. Enjoy!
****************************************************************************

END

+--------------------------------------------------------------------------+

| This file is the author's own work and represents their interpretation |
| of the song. You may only use this file for private study, scholarship, |
| or research. |
+--------------------------------------------------------------------------+


Ultimate-Guitar.Com © 2005


A# B Bb C# C#7 F# G# G#7 G7
variations - click chord images
Transpose chords:
Tuning:
Cool service:
View: Size:
A  A  A
Rating:
Layout:
  • Currently 3.7/5 Stars.
  • 1
  • 2
  • 3
  • 4
  • 5
 
Accuracy:
  • Currently 5/5 Stars.
  • 1
  • 2
  • 3
  • 4
  • 5
 
click stars to rate
Chordie recommends:
Learn to play guitar with video-based, online guitar lessons at JamPlay.com
Songbook:
Login to add this song to your songbook
Support the artist
Preview/buy this song
MSN Music
Why this non-profit ad?

 
login to add comments/video/corrections