A Man Ill Never Be

Boston

----------------------------------------------------------------------------

----------------------------------------------------------------------------

 CB/CAmGD/F
e|--------------------------------------------------------------|
B|----1--------3--------1---------1---------3--------3----------|
G|---0-0-0----0-0-0----2-2-2-----0-0-0-----2-2------2-2-2-------|
D|--2---2-2--0---0-0--2---2-2---2---2-2---0---0--0-0---0-0------|
A|-3--------2--------0------------------------------------------|
E|----------------------------3----------2-----0--2-------------|

It's so hard to be unkind
e|-------------------------------------------------------------|
B|-----0------0h1----1--0--------------------------------------|
G|----0-0-0-------0---0--0-------------------------------------|
D|---0---0-0--0h2--2---2---------------------------------------|
A|-------------------------------------------------------------|
E|-3-----------------------------------------------------------|

The way it seems.......
e|-1-----------------------------------0----------------------0---|
B|-1--------1----1-----0-----1-----1-------0---3--------1------0--|
G|-2----------2----0-----0-----0-----0---0---0---0--2-----2-0---0-|
D|-3--2--------------0-----0--------------------------2-----------|
A|------3---------------------------------------------------------|
E|--------0-------------------------------------------------------|

You look up at me.............

e|-------------|-------------|-----------------|---------------|
B|---1---------|-------1-----|-------1-----1---|-1-----0-------|
G|-----2-----2-|-2---2-------|-----0---0-----0-|--------0--0---|
D|-------3-2---|-3-3-----3---|---0-------0-----|---3-3----0-0--|
A|-3-----------|-----------3-|-----------------|---------------|
E|1------------|-------------|-3---------------|---------------|

A man I'll never be.............

e|------------------------------------------------------------------------|
B|-------------------------------------------------------------------5-6--|
G|------------------------------4-5-7-4-5-7-5h7-----------------4-5-7-----|
D|---7~---777h9-7s55--7h9-7-5-7-----------------7--777h9-7s55--7----------|
A|--7----7-----------7----------------------------7-----------7-----------|
E|------------------------------------------------------------------------|
e|------------------------------------------------------------------|
B|------------------------------------3-----------------------------|
G|--7b8r7b9-5h7p5-5~5s7---5-5-0-----2-0-----------------------------|
D|----------------------3-5-5-0-555-2-0-3~--------------------------|
A|----------------------3-3-2---555-0-2-3~--------------------------|
E|----------------------1-------333-----1~--------------------------|

More piano.......then this
 CB/CAmGD/F

e|-------------------------------------------------------------|
B|----1--------3--------1---------1---------3--------3---------|
G|---0-0-0----0-0-0----2-2-2-----0-0-0-----2-2------2-2-2------|
D|--2---2-2--0---0-0--2---2-2---2---2-2---0---0--0-0---0-0-----|
A|-3--------2--------0-----------------------------------------|
E|----------------------------3----------2-----0--2------------|

x2
e|-------------------------------------------------------------|
B|-----0------0h1----1--0--------------------------------------|
G|----0-0-0-------0---0--0-------------------------------------|
D|---0---0-0--0h2--2---2---------------------------------------|
A|-------------------------------------------------------------|
E|-3-----------------------------------------------------------|


then this
e|-1-----------------------------------0----------------------0---|
B|-1--------1----1-----0-----1-----1-------0---3--------1------0--|
G|-2----------2----0-----0-----0-----0---0---0---0--2-----2-0---0-|
D|-3--2--------------0-----0--------------------------2-----------|
A|------3---------------------------------------------------------|
E|--------0-------------------------------------------------------|
e|-------------|-------------|-----------------|---------------|
B|---1---------|-------1-----|-------1-----1---|-1-----0-------|
G|-----2-----2-|-2---2-------|-----0---0-----0-|--------0--0---|
D|-------3-2---|-3-3-----3---|---0-------0-----|---3-3----0-0--|
A|-3-----------|-----------3-|-----------------|---------------|
E|1------------|-------------|-3---------------|---------------|


I know the rest of the song....but it's a pain so for right now I've got this and I'll
the two parts later and post them on one tab for you guys........

| / slide up
| \ slide down
| h hammer-on
| p pull-off
| ~ vibrato
| + harmonic
| x Mute note
========================================================================

END

+--------------------------------------------------------------------------+

| This file is the author's own work and represents their interpretation |
| of the song. You may only use this file for private study, scholarship, |
| or research. |
+--------------------------------------------------------------------------+


Ultimate-Guitar.Com © 2005


Am B/C C D/F G
variations - click chord images
Transpose chords:
Tuning:
Cool service:
View: Size:
A  A  A
Rating:
Layout:
  • Currently 0/5 Stars.
  • 1
  • 2
  • 3
  • 4
  • 5
 
Accuracy:
  • Currently 0/5 Stars.
  • 1
  • 2
  • 3
  • 4
  • 5
 
click stars to rate
Chordie recommends:
Check out JamPlay.com for online video guitar lessons
Songbook:
Login to add this song to your songbook
Support the artist
Preview/buy this song
MSN Music
Why this non-profit ad?

 
login to add comments/video/corrections