Guitar Tabs, Chords and Lyrics


So here we are   Bloc Party


Artist: Bloc Party
Song: So here we are
This is one of bloc partys best love songs
Please enjoy!

Intro/verse
G---------6---------6---------6--------6---------|
D-------7---7-----7---7-----7---7----7---7-------|
A----0---------0---------0---------0-------------|
E------------------------------------------------|


other part
G-------------------------------------------------|
D--------14-----9---11--------14-----9---11-------|
A----12-------------------12----------------------|
E-------------------------------------------------|

G-------------------------------------------------|
D--------14-----16---12--------14-----16---12-----|
A-----12-------------------12---------------------|


Important: The song above is NOT stored on the Chordie server. The original song is hosted at www.ultimate-guitar.com. Chordie works as a search engine and provides on-the-fly formatting. Chordie does not index songs against artists/composers will. To remove this song please click here.

This song is displayed as text-only. Transposing and tuning is only available for chordpro-songs.

Login - add to songbook

Rating click stars to rate

Layout
Accuracy

SHARE PAGE  




You need to log in to post comments