My Evil Twin

They Might Be Giants





e-------------------------------------------|


B-----2-------2--------3--------------------|


G---2-------2--------2---2------4--2--------|


D-------------------------------5--4--------|


A-0-----0-----------------------------------|


E---------3------3-2------------------------|


 AA/GD/F#GD/F#AA/GD/F#BmA
   My evil twin,               bad weather friend        
 GG/F#EmFEmGE/G#
   He always wants to start when I want to be-gin    
 AA/GD/F#GD/F#AA/GD/F#BmA
   It scares me so,               like I scare myself         
 GG/F#EmAA/GF#B
   With that book of Nostradamus up upon my shelf  

Chorus 1:
 EmC#dim
 Playing hangman 'til the morning light
 EmC#dim
 Doing donuts on the neighbors lawn
 DD/C#BmGDD/C#BmG
Then sleep all through the day, get up and start again     
 D/ABm6/G#GmC#dim/E
 I can hear some sirens somewhere but I don't know why

Verse 2:
 DD/C#BmGDD/C#BmG
   My evil twin      runs home again     
 D/ABm6/G#GmC#dim/E
 Search lights look for an alibi, but I'll be home by then

Intro riff:
e-------------------------------------------|
B-----2-------2--------3--------------------|
G---2-------2--------2---2------4--2--------|
D-------------------------------5--4--------|
A-0-----0-----------------------------------|
E---------3------3-2------------------------|


Verse 3:
 AA/GD/F#GD/F#AA/GD/F#BmA
   Here he comes again,            my evil twin           
 GG/F#EmAA/GF#B
   My friends have seen him hiding underneath my skin   

Chorus 2:
 EmC#dim
 Who cut the arm off the voodoo doll
 EmC#dimDD#/CBm
 That resembles a Republican president from long ago
 GDD#/CBmG
 I'd hate to  see  you leave   

 D/ABm6/G#
 'Cause I have grown so grateful  for the
 GmC#dim/E
 Blame you save  me  from

(Bass: A-G-F#-E)

 DE
 My twin
 F#Bm
 My twin
 GA
 My twin

(My twin) I know he looks like me
(My twin) Hates work like me and walks like me
(My twin) He's even got a twin like me

Verse 4:
 DD/C#BmGDD/C#BmG
   My evil twin,     bad weather friend 
 D/ABm6/G#
   I know some day I'll meet him
 GmBbCD6
 But I don't know where or when

END

+--------------------------------------------------------------------------+

| This file is the author's own work and represents their interpretation |
| of the song. You may only use this file for private study, scholarship, |
| or research. |
+--------------------------------------------------------------------------+


Ultimate-Guitar.Com © 2005