eToCache5 = ""; ?> Move Over by Janis Joplin - guitar chords, guitar tabs and lyrics - chordie

Move Over

Janis Joplin

e|----------------------------------|

B|----------------------------------|
G|----------------------------------|
D|---5b-5-3-5---5-3-----------------|
A|-5----------5---------------------|
E|----------------------------------|
e|-----------------------------------|
B|-----------------------------------|
G|---5/7-5---5-5---------------------|
D|-5-------7-----53------------------|
A|-----------------------------------|
E|-----------------------------------|
e|----------------------------------|
B|----------------------------------|
G|----------------------------------|
D|-----3-5b-5-3---------------------|
A|-5-5----------5-5-----------------|
E|------------------5---------------|
e|----------------------------------|
B|----------------------------------|
G|----------------------------------|
D|-------3--------------------------|
A|-----3---5------------------------|
E|-5-5------------------------------|
e|----------------------------------|
B|----------------------------------|
G|----------------------------------|
D|-----3-------------0-5br-3h5------|
A|---3---5--------------------------|
E|-5--------------------------------|
e|----------------------------------|
B|----------------------------------|
G|----------------------------------|
D|-5b-5-3-5---5-3-------------------|
A|----------5-----------------------|
E|----------------------------------|
e|-----------------------------------|
B|-----------------------------------|
G|---5/7-5---5-5---------------------|
D|-5-------7-----53------------------|
A|-----------------------------------|
E|-----------------------------------|
e|----------------------------------------|
B|----------------------------------------|
G|----------------------------------------|
D|-----3-5b-5-3---------------------------|
A|-5-5----------5-5-3---------------------|
E|--------------------5-------------------|
e|----------------------------------|
B|----------------------------------|
G|----------------------------------|
D|-----3----------------------------|
A|---3---5-5------------------------|
E|-5--------------------------------|
e|-----------------------------------|
B|-----------------------------------|
G|----------------------------5------|
D|-----3------------------5h7---53---|
A|---3---5------------5-8------------|
E|-5---------------------------------|
e|----------------------------------|
B|----------------------------------|
G|-------------------------5-7------|
D|-5b-5-3-5---5-3----------3-5------|
A|----------5-----------------------|
E|----------------------------------|
e|-------------------------------------|
B|-------------------------------------|
G|---5/7-5---5-5-----------5-7---------|
D|-5-------7-----53-------3-5----------|
A|-------------------------------------|
E|-------------------------------------|
e|----------------------------------|
B|----------------------------------|
G|----------------------------------|
D|---5b-5-3-------------------------|
A|-5--------5-3---------------------|
E|--------------5-------------------|
e|----------------------------------|
B|----------------------------------|
G|----------------------------------|
D|-----3----------------------------|
A|---3---5-5------------------------|
E|-5--------------------------------|
e|----------------------------------|
B|----------------------------------|
G|----------------------------------|
D|-----3-------------0-5br-3h5------|
A|---3---5--------------------------|
E|-5--------------------------------|
e|-------------------------------------|
B|-------------------------------------|
G|-------------------------5-7---------|
D|-5b-5-3-5---5-3----------3-5---------|
A|----------5--------------------------|
E|-------------------------------------|
e|-------------------------------------|
B|-------------------------------------|
G|-5/7-5---5-5-------------5-7---------|
D|-------7-----53---------3-5----------|
A|-------------------------------------|
E|-------------------------------------|
e|----------------------------------|
B|----------------------------------|
G|----------------------------------|
D|---5b-5-3-------------------------|
A|-5--------5-3---------------------|
E|--------------5-------------------|

 DD#E
e|----------------------------------|
B|----------------------------------|
G|----------------------------------|
D|-----3--------------7--8--9-------|
A|---3---5------------5--6--7-------|
E|-5--------------------------------|

Oh yeah,

 E
 ..make up your mind, honey,
 G
   You're playing with me, hey hey hey,
 E
   Make up your mind, darling,
 G
   You're playing with me, come on now!
 A
   Now either be my loving man,
 CBA#A
I said-a let me honey, let me be, yeah!    

(Guitar solo) is with pentatonic just jam to it feel the music

====================================
Obs.:Use os mesmos licks dos primeiros versos p/ tocar estes próximos..
====================================

You say that it's over, baby, no,
You say that it's over now,
But still you hang around me, come on
Won't you move over.

You know that I need a man, honey, I told you so.
You know that I need a man,
But when I ask you to you just tell me
That maybe you can.

Hey! Please don?t you do it to me, babe, no!
Please don?t you do it to me baby,
Either take this love I offer,
Honey let me be.

(RIFF FINAL):
 AFD
e|------------------------|
B|------------------------|
G|------------------------|
D|-----3------------------|
A|---3---5----------------|
E|-5----------------------|


========(o ?RIFF FINAL? é repetido até acabar a música)========

I said won't you, won't you let me be ?
Honey, you're teasing me.

Yeah, you're playing with my heart, dear,
I believe you're toying with my affections, honey.

I can't take it no more baby,
And furthermore, I don't intend to.
I'm just tired of hanging from the end of a string, honey,
You expect me to fight like a goddamned mule.
Wah, wah, wah, wah, honey...
..

END

+--------------------------------------------------------------------------+

| This file is the author's own work and represents their interpretation |
| of the song. You may only use this file for private study, scholarship, |
| or research. |
+--------------------------------------------------------------------------+


Ultimate-Guitar.Com © 2005


A A# B C D D# E F G
variations - click chord images
Transpose chords:
Tuning:
Cool service:
View: Size:
A  A  A
Rating:
Layout:
  • Currently 1/5 Stars.
  • 1
  • 2
  • 3
  • 4
  • 5
 
Accuracy:
  • Currently 3/5 Stars.
  • 1
  • 2
  • 3
  • 4
  • 5
 
click stars to rate
Chordie recommends:
Learn to play guitar with video-based, online guitar lessons at JamPlay.com
Songbook:
Login to add this song to your songbook
Support the artist
Preview/buy this song
MSN Music
Why this non-profit ad?

 
login to add comments/video/corrections