""; ?> Trouble by Pink - guitar chords, guitar tabs and lyrics - chordie

Trouble

Pink

 GG
e|-----------------|-----------------|
B|-----------------|-----------------|
G|-----------------|-----------------|
D|-----------------|-----------------|
A|-----------------|-----------------|
E|-3-3-3-3-3-3-3-3-|-3-3-3-3-3-3-3-3-|

.....................................
Verse
 GDCG
e|-----------------|-----------------|-----------------|-----------------|
B|-----------------|-----------------|-----------------|-----------------|
G|-----------------|-----------------|-----------------|-----------------|
D|-----------------|-----------------|-----------------|-----------------|
A|-----------------|-5-5-5-5-5-5-5-5-|-3-3-3-3-3-3-3-3-|-----------------|
E|-3-3-3-3-3-3-3-3-|-----------------|-----------------|-3-3-3-3-3-3-3-3-|

.........................................................................
 GDCGD
e|-----------------|-----------------|-----------------|-----------------|
B|-----------------|-----------------|-----------------|-----------------|
G|-----------------|-----------------|-----------------|-----------------|
D|-----------------|-----------------|-----------------|-----------------|
A|-----------------|-5-5-5-5-5-5-5-5-|-3-3-3-3-3-3-3-3-|---------5-5-5-5-|
E|-3-3-3-3-3-3-3-3-|-----------------|-----------------|-3-3-3-3---------|

.........................................................................
Chorus
 GCDGCDGCC#DC
e|-----------------|-----------------|-----------------|-----------------|
B|-----------------|-----------------|-----------------|-----------------|
G|-----------------|-----------------|-----------------|-----------------|
D|----------5-5--7-|----------5-5--7-|----------5-5--6-|-7---7----5---5--|
A|-5---5----3-3--5-|-5---5----3-3--5-|-5---5----3-3--4-|-5---5----3---3--|
E|-3---3-----------|-3---3-----------|-3---3-----------|-----------------|

 GCDGCDGCC#DC
e|-----------------|-----------------|-----------------|-----------------|
B|-----------------|-----------------|-----------------|-----------------|
G|-----------------|-----------------|-----------------|-----------------|
D|----------5-5--7-|----------5-5--7-|----------5-5--6-|-7---7----5---5--|
A|-5---5----3-3--5-|-5---5----3-3--5-|-5---5----3-3--4-|-5---5----3---3--|
E|-3---3-----------|-3---3-----------|-3---3-----------|-----------------|

Verse
 GDCG
e|-----------------|-----------------|-----------------|-----------------|
B|-----------------|-----------------|-----------------|-----------------|
G|-----------------|-----------------|-----------------|-----------------|
D|-----------------|-----------------|-----------------|-----------------|
A|-----------------|-5-5-5-5-5-5-5-5-|-3-3-3-3-3-3-3-3-|-----------------|
E|-3-3-3-3-3-3-3-3-|-----------------|-----------------|-3-3-3-3-3-3-3-3-|

.........................................................................
 GDCGD
e|-----------------|-----------------|-----------------|-----------------|
B|-----------------|-----------------|-----------------|-----------------|
G|-----------------|-----------------|-----------------|-----------------|
D|-----------------|-----------------|-----------------|-----------------|
A|-----------------|-5-5-5-5-5-5-5-5-|-3-3-3-3-3-3-3-3-|---------5-5-5-5-|
E|-3-3-3-3-3-3-3-3-|-----------------|-----------------|-3-3-3-3---------|

.........................................................................
Chorus
 GCDGCDGCC#DC
e|-----------------|-----------------|-----------------|-----------------|
B|-----------------|-----------------|-----------------|-----------------|
G|-----------------|-----------------|-----------------|-----------------|
D|----------5-5--7-|----------5-5--7-|----------5-5--6-|-7---7----5---5--|
A|-5---5----3-3--5-|-5---5----3-3--5-|-5---5----3-3--4-|-5---5----3---3--|
E|-3---3-----------|-3---3-----------|-3---3-----------|-----------------|

 GCDGCDGCC#DC
e|-----------------|-----------------|-----------------|-----------------|
B|-----------------|-----------------|-----------------|-----------------|
G|-----------------|-----------------|-----------------|-----------------|
D|----------5-5--7-|----------5-5--7-|----------5-5--6-|-7---7----5---5--|
A|-5---5----3-3--5-|-5---5----3-3--5-|-5---5----3-3--4-|-5---5----3---3--|
E|-3---3-----------|-3---3-----------|-3---3-----------|-----------------|

Brigde
 BmEmAmCD
e|-2-2-2-2-2-2-2-2-|-0-0-0-0-0-0-0-0-|-0-0-0-0-0-0-0-0-|-0-0-0-0-2-2-2-2-|
B|-3-3-3-3-3-3-3-3-|-0-0-0-0-0-0-0-0-|-1-1-1-1-1-1-1-1-|-1-1-1-1-3-3-3-3-|
G|-4-4-4-4-4-4-4-4-|-0-0-0-0-0-0-0-0-|-2-2-2-2-2-2-2-2-|-0-0-0-0-2-2-2-2-|
D|-4-4-4-4-4-4-4-4-|-2-2-2-2-2-2-2-2-|-2-2-2-2-2-2-2-2-|-2-2-2-2-0-0-0-0-|
A|-2-2-2-2-2-2-2-2-|-2-2-2-2-2-2-2-2-|-0-0-0-0-0-0-0-0-|-3-3-3-3---------|
E|-----------------|-0-0-0-0-0-0-0-0-|-----------------|-----------------|

 BmEAmCD
e|-2-2-2-2-2-2-2-2-|-0-0-0-0-0-0-0-0-|-0-0-0-0-0-0-0-0-|-0-0-0-0-2-2-2-2-|
B|-3-3-3-3-3-3-3-3-|-0-0-0-0-0-0-0-0-|-1-1-1-1-1-1-1-1-|-1-1-1-1-3-3-3-3-|
G|-4-4-4-4-4-4-4-4-|-1-1-1-1-1-1-1-1-|-2-2-2-2-2-2-2-2-|-0-0-0-0-2-2-2-2-|
D|-4-4-4-4-4-4-4-4-|-2-2-2-2-2-2-2-2-|-2-2-2-2-2-2-2-2-|-2-2-2-2-0-0-0-0-|
A|-2-2-2-2-2-2-2-2-|-2-2-2-2-2-2-2-2-|-0-0-0-0-0-0-0-0-|-3-3-3-3---------|
E|-----------------|-0-0-0-0-0-0-0-0-|-----------------|-----------------|

Solo
 GCDGCDGCC#DC
e|-----------------|-----------------|-----------------|-----------------|
B|-----------------|-----------------|-----------------|-----------------|
G|-----------------|-----------------|-----------------|-----------------|
D|----------5-5--7-|----------5-5--7-|----------5-5--6-|-7---7----5---5--|
A|-5---5----3-3--5-|-5---5----3-3--5-|-5---5----3-3--4-|-5---5----3---3--|
E|-3---3-----------|-3---3-----------|-3---3-----------|-----------------|

 GCDGCDGCC#DC
e|-----------------|-----------------|-----------------|-----------------|
B|-----------------|-----------------|-----------------|-----------------|
G|-----------------|-----------------|-----------------|-----------------|
D|----------5-5--7-|----------5-5--7-|----------5-5--6-|-7---7----5---5--|
A|-5---5----3-3--5-|-5---5----3-3--5-|-5---5----3-3--4-|-5---5----3---3--|
E|-3---3-----------|-3---3-----------|-3---3-----------|-----------------|

Breakdown
e|-----------------|-----------------|-----------------|-----------------|
B|-----------------|-----------------|-----------------|-----------------|
G|-----------------|-----------------|-----------------|-----------------|
D|-----------------|-----------------|-----------------|-----------------|
A|-----------------|-----------------|-----------------|-----------------|
E|-----------------|-----------------|-----------------|-----------------|

 GDCGD
e|-----------------|-----------------|-----------------|-----------------|
B|-----------------|-----------------|-----------------|-----------------|
G|-----------------|-----------------|-----------------|-----------------|
D|-----------------|-----------------|-----------------|-----------------|
A|-----------------|-5-5-5-5-5-5-5-5-|-3-3-3-3-3-3-3-3-|---------5-5-5-5-|
E|-3-3-3-3-3-3-3-3-|-----------------|-----------------|-3-3-3-3---------|

.........................................................................
Verse
 GDCG
e|-----------------|-----------------|-----------------|-----------------|
B|-----------------|-----------------|-----------------|-----------------|
G|-----------------|-----------------|-----------------|-----------------|
D|-----------------|-----------------|-----------------|-----------------|
A|-----------------|-5-5-5-5-5-5-5-5-|-3-3-3-3-3-3-3-3-|-----------------|
E|-3-3-3-3-3-3-3-3-|-----------------|-----------------|-3-3-3-3-3-3-3-3-|

.........................................................................
 GDCGD
e|-----------------|-----------------|-----------------|-----------------|
B|-----------------|-----------------|-----------------|-----------------|
G|-----------------|-----------------|-----------------|-----------------|
D|-----------------|-----------------|-----------------|-----------------|
A|-----------------|-5-5-5-5-5-5-5-5-|-3-3-3-3-3-3-3-3-|---------5-5-5-5-|
E|-3-3-3-3-3-3-3-3-|-----------------|-----------------|-3-3-3-3---------|

.........................................................................
Chorus
 GCDGCDGCC#DC
e|-----------------|-----------------|-----------------|-----------------|
B|-----------------|-----------------|-----------------|-----------------|
G|-----------------|-----------------|-----------------|-----------------|
D|----------5-5--7-|----------5-5--7-|----------5-5--6-|-7---7----5---5--|
A|-5---5----3-3--5-|-5---5----3-3--5-|-5---5----3-3--4-|-5---5----3---3--|
E|-3---3-----------|-3---3-----------|-3---3-----------|-----------------|

 GCDGCDGCC#DC
e|-----------------|-----------------|-----------------|-----------------|
B|-----------------|-----------------|-----------------|-----------------|
G|-----------------|-----------------|-----------------|-----------------|
D|----------5-5--7-|----------5-5--7-|----------5-5--6-|-7---7----5---5--|
A|-5---5----3-3--5-|-5---5----3-3--5-|-5---5----3-3--4-|-5---5----3---3--|
E|-3---3-----------|-3---3-----------|-3---3-----------|-----------------|

Brigde
 BmEmAmCD
e|-2-2-2-2-2-2-2-2-|-0-0-0-0-0-0-0-0-|-0-0-0-0-0-0-0-0-|-0-0-0-0-2-2-2-2-|
B|-3-3-3-3-3-3-3-3-|-0-0-0-0-0-0-0-0-|-1-1-1-1-1-1-1-1-|-1-1-1-1-3-3-3-3-|
G|-4-4-4-4-4-4-4-4-|-0-0-0-0-0-0-0-0-|-2-2-2-2-2-2-2-2-|-0-0-0-0-2-2-2-2-|
D|-4-4-4-4-4-4-4-4-|-2-2-2-2-2-2-2-2-|-2-2-2-2-2-2-2-2-|-2-2-2-2-0-0-0-0-|
A|-2-2-2-2-2-2-2-2-|-2-2-2-2-2-2-2-2-|-0-0-0-0-0-0-0-0-|-3-3-3-3---------|
E|-----------------|-0-0-0-0-0-0-0-0-|-----------------|-----------------|

 BmEAmCD
e|-2-2-2-2-2-2-2-2-|-0-0-0-0-0-0-0-0-|-0-0-0-0-0-0-0-0-|-0-0-0-0-2-2-2-2-|
B|-3-3-3-3-3-3-3-3-|-0-0-0-0-0-0-0-0-|-1-1-1-1-1-1-1-1-|-1-1-1-1-3-3-3-3-|
G|-4-4-4-4-4-4-4-4-|-1-1-1-1-1-1-1-1-|-2-2-2-2-2-2-2-2-|-0-0-0-0-2-2-2-2-|
D|-4-4-4-4-4-4-4-4-|-2-2-2-2-2-2-2-2-|-2-2-2-2-2-2-2-2-|-2-2-2-2-0-0-0-0-|
A|-2-2-2-2-2-2-2-2-|-2-2-2-2-2-2-2-2-|-0-0-0-0-0-0-0-0-|-3-3-3-3---------|
E|-----------------|-0-0-0-0-0-0-0-0-|-----------------|-----------------|

Wierd Chorus
 GCDGCDGCC#DC
e|-----------------|-----------------|-----------------|-----------------|
B|-----------------|-----------------|-----------------|-----------------|
G|-----------------|-----------------|-----------------|-----------------|
D|----------x-x--7-|----------x-x--7-|----------x-5--x-|-7---x----5---5--|
A|-5---x----x-x--5-|-5---x----x-x--5-|-5---x----x-3--x-|-5---x----3---3--|
E|-3---x-----------|-3---x-----------|-3---x-----------|-----------------|

 GCDGCDGCC#DC
e|-----------------|-----------------|-----------------|-----------------|
B|-----------------|-----------------|-----------------|-----------------|
G|-----------------|-----------------|-----------------|-----------------|
D|----------x-x--7-|----------x-x--7-|----------x-5--x-|-7---7----5---5--|
A|-5---x----x-x--5-|-5---x----x-x--5-|-5---x----x-3--x-|-5---5----3---3--|
E|-3---x-----------|-3---x-----------|-3---x-----------|-----------------|

Chorus
 GCDGCDGCC#DC
e|-----------------|-----------------|-----------------|-----------------|
B|-----------------|-----------------|-----------------|-----------------|
G|-----------------|-----------------|-----------------|-----------------|
D|----------5-5--7-|----------5-5--7-|----------5-5--6-|-7---7----5---5--|
A|-5---5----3-3--5-|-5---5----3-3--5-|-5---5----3-3--4-|-5---5----3---3--|
E|-3---3-----------|-3---3-----------|-3---3-----------|-----------------|

 GCDGCDGCC#DC
e|-----------------|-----------------|-----------------|-----------------|
B|-----------------|-----------------|-----------------|-----------------|
G|-----------------|-----------------|-----------------|-----------------|
D|----------5-5--7-|----------5-5--7-|----------5-5--6-|-7---7----5---5--|
A|-5---5----3-3--5-|-5---5----3-3--5-|-5---5----3-3--4-|-5---5----3---3--|
E|-3---3-----------|-3---3-----------|-3---3-----------|-----------------|

Solo
 GCDGCDGCC#DC
e|-----------------|-----------------|-----------------|-----------------|
B|-----------------|-----------------|-----------------|-----------------|
G|-----------------|-----------------|-----------------|-----------------|
D|----------5-5--7-|----------5-5--7-|----------5-5--6-|-7---7----5---5--|
A|-5---5----3-3--5-|-5---5----3-3--5-|-5---5----3-3--4-|-5---5----3---3--|
E|-3---3-----------|-3---3-----------|-3---3-----------|-----------------|

 GCDGCDGCC#DC
e|-----------------|-----------------|-----------------|-----------------|
B|-----------------|-----------------|-----------------|-----------------|
G|-----------------|-----------------|-----------------|-----------------|
D|----------5-5--7-|----------5-5--7-|----------5-5--6-|-7---7----5---5--|
A|-5---5----3-3--5-|-5---5----3-3--5-|-5---5----3-3--4-|-5---5----3---3--|
E|-3---3-----------|-3---3-----------|-3---3-----------|-----------------|

============================================================================
Extra Bits
the solo is this
e|-----------------|-----------------|-----------------|-----------------|
B|-----------------|-----------------|-----------------|-----------------|
G|-7-7-7-9p7---7-7-|-7-7-7-9p7---7-7-|-7-7-7-9p7---7-9-|-9^[11]-9-7-7-9-7|
D|-----------9-----|-----------9-----|-----------9-----|-----------------|
A|-----------------|-----------------|-----------------|-----------------|
E|-----------------|-----------------|-----------------|-----------------|
e|-----------------|-----------------|-----------------|-----------------|
B|-----------------|-----------------|-----------------|-----------------|
G|-7-7-7-9p7---7-7-|-7-7-7-9p7---7-7-|-7-7-7-9p7---7-9-|-9^[11]-9-7-7-9-7|
D|-----------9-----|-----------9-----|-----------9-----|-----------------|
A|-----------------|-----------------|-----------------|-----------------|
E|-----------------|-----------------|-----------------|-----------------|

============================================================================
lyrics:
Verse 1
No attorneys - to plead my case
No orbits - to send me into outer space
And my fingers are bejeweled
With diamonds and gold but that ain't
Gonna help me now
Chorus
I'm trouble - yeah trouble now
I'm trouble y'all, I disturb my own town
I'm trouble - yeah, trouble now
I'm trouble y'all, I got trouble in my town
Verse 2
You think you're right, but you were wrong
You tried to take me, but I knew all along
You can't take me for a ride
I'm not a fool now - so you better run and hide
Chorus
Bridge
If you see me coming down the street
Then you know it's time to go
(Then you know it's time to go 'cause
Here comes trouble)
Verse 1
Verse 2
Chorus
Bridge
Chorus (out)
============================================================================
well thats it any questions or suggestions please a comment thanks
============================================================================


Am Bm C C# D E Em G
variations - click chord images
Transpose chords:
Tuning:
Cool service:
View: Size:
A  A  A
Rating:
Layout:
  • Currently 0/5 Stars.
  • 1
  • 2
  • 3
  • 4
  • 5
 
Accuracy:
  • Currently 0/5 Stars.
  • 1
  • 2
  • 3
  • 4
  • 5
 
click stars to rate
Chordie recommends:
Learn to play guitar with video-based, online guitar lessons at JamPlay.com
Songbook:
Login to add this song to your songbook
Support the artist
Preview/buy this song
MSN Music
Why this non-profit ad?

 
login to add comments/video/corrections