eToCache5 = ""; ?> Deewane Hoke Hum by Sonu Nigam - guitar chords, guitar tabs and lyrics - chordie

Deewane Hoke Hum

Sonu Nigam

 CAm
Intro tabbed for guitar

e|-------7----7---7---------7----7-------------------|
B|---------10---8---10-8------10---8-10-7-8----------|
G|-----9------------------9--------------------------|
D|---------------------------------------------------|
A|---------------------------------------------------|
E|---------------------------------------------------|
e|---------------------------------------------------|
B|---------8-7---7-10-8-7----------------------------|
G|--9----9-----7----------9--------------------------|
D|----10---------------------------------------------|
A|---------------------------------------------------|
E|---------------------------------------------------|


Intro guitar

e|--------------------------------7-7h8p7--------------|
B|------7-7h8-7-7s8-----------7-8---------10-----------|
G|--7s9-----------------9-9-9--------------------------|
D|-----------------------------------------------------|
A|-----------------------------------------------------|
E|-----------------------------------------------------|
e|-------------------------------------|
B|-10-10-8-7-7-10-8-7------------------|
G|---------------------9v--------------|
D|-------------------------------------|
A|-------------------------------------|
E|-------------------------------------|


Played during Hmmm..Hm..

e|--12p11-12-14-12p11h12p11-----------------------|
B|--------------------------10h12p10--------------|
G|-----------------------------------12-----------|
D|------------------------------------------------|
A|------------------------------------------------|
E|------------------------------------------------|


Played during the verses

e|------------------|
B|------------------|
G|--2-4-5-4-2-------|
D|------------------|
A|------------------|
E|------------------|
e|-------------------|
B|-------------------|
G|--2----------------|
D|----2-4-5-4-5------|
A|-------------------|
E|-------------------|


 EmG
Hm hm hm hm, hm hm mm hm hm
 DEm
Hey hey hey hey, aa aa ha haa

Verse
 EmAm
Deewane ho ke ham milne lage sanam
 DEm
Jab se jude hain silsile
 EmAm
Aankhon se ruth kar neendein chali gayeen
 DEm
Na jaane kaise gul khile
 EmD
Na jaane kaise pyaar hua na jaane kab iqraar hua
 GBm
Ke apni baat ban gayi
 EmAm
Deewane ho ke ham milne lage sanam
 DEm
Jab se jude hain silsile

Solo after verse 1 (sounds more like keyboards)

e|-----------7------------------------------------------------------|
B|---------8---10-8-8s10-8s10-7v------7-10-7h8p7--------------------|
G-----7s9---------------------------8-------------9-7-7s9v----------|
D|--------------------------------9---------------------------------|
A|------------------------------------------------------------------|
E|------------------------------------------------------------------|
e|-----------7------------------------------------------------------|
B|---------8---10-8-8s10-10h12p10----------7-10-7h8p7---------------|
G|-----7s9------------------------11v----8------------9-7-7s9v------|
D|-------------------------------------9----------------------------|
A|------------------------------------------------------------------|
E|------------------------------------------------------------------|
e|-----7s8-8-8-8-10-8-7-----------------7-8-10-8-7-7v--------|
B|----------------------10-10v---7-8-10----------------------|
G|-----------------------------9-----------------------------|
D|-----------------------------------------------------------|
A|-----------------------------------------------------------|
E|-----------------------------------------------------------|
e|-----------7----------------------------7------------------|
B|---------8---10-8-8s10-8s10-7v---7-8-10---7h8p7------------|
G|-----7s9----------------------------------------7-7s9v-----|
D|-----------------------------------------------------------|
A|-----------------------------------------------------------|
E|-----------------------------------------------------------|


Stanza 1
 EmD
Dhadakta hai dil tumhaare liye
 AmEm
Aey husn-e-jaan zara sochiye
 EmD
Haan yeh kya dillagi yeh kya hai sitam
 AmEm
Aaye abhi abhi chal diye
 CAmDEm
Mithenge kaise yeh faasle

Played during the stanzas

e|-----------12-12s-----|
B|--10-12-13------------|
G|----------------------|
D|----------------------|
A|----------------------|
E|----------------------|
e|--10s12-10-7-8p7------|
B|-----------------10---|
G|----------------------|
D|----------------------|
A|----------------------|
E|----------------------|


Verse 2(same chords)
Deewane ho ke ham milne lage sanam
Jab se jude hain silsile
Aankhon se ruth kar neendein chali gayeen
Na jaane kaise gul khile

Solo after the 2nd verse

e|-----------7------------------------------------|
B|---------8---10-8-8s10-------7-10-8-7-7s8-------|
G|-----7s9-----------------5s7--------------------|
D|------------------------------------------------|
A|------------------------------------------------|
E|------------------------------------------------|
e|-----------------------------------------------------|
B|------------8-7--------------------------------------|
G|----------9-----9-9s11---8-8-8-8---8-8s9v------------|
D|-----8s10------------------------9-------------------|
A|-----------------------------------------------------|
E|-----------------------------------------------------|


Another guitar plays this behind the above solo.

e|-----------------------------------------|
B|--10--8--7-------8-7-5-----4-5s7---------|
G|---9--7--6-------7-6-4-----3-4s6---------|
D|-----------------------------------------|
A|-----------------------------------------|
E|-----------------------------------------|


Then D Am Em

Stanza 2( same chords as stanza 1)
Muqaddar mera sanwar jaane do
Dil jo kahe woh kar jaane do
Ho meri baahon mein chale aao tum

Had se mujhe guzar jaane do
Ke aao laga loon tumko gale

Verse 3
Deewane ho ke ham milne lage sanam
Jab se jude hain silsile
Aankhon se ruth kar neendein chali gayeen
Na jaane kaise gul khile
Na jaane kaise pyaar hua na jaane kab iqraar hua
Ke apni baat ban gayi

 EmD
Hm hm hm hm, hey la la la
 EmD
Ho ho ho ho, la la la la

Played towards the end with Hmm..Hm..

e|--8s10--------------------|
B|-------12-10--------------|
G|-------------9s12v--------|
D|--------------------------|
A|--------------------------|
E|--------------------------|
e|--------12-10------------------------|
B|--10s12-------12-10------------------|
G|--------------------11-12p11p9-------|
D|-------------------------------------|
A|-------------------------------------|
E|-------------------------------------|


And that's the end

Please rate this tab.

END

+--------------------------------------------------------------------------+

| This file is the author's own work and represents their interpretation |
| of the song. You may only use this file for private study, scholarship, |
| or research. |
+--------------------------------------------------------------------------+


Ultimate-Guitar.Com © 2005


Am Bm C D Em G
variations - click chord images
Transpose chords:
Tuning:
Cool service:
View: Size:
A  A  A
Rating:
Layout:
  • Currently 3/5 Stars.
  • 1
  • 2
  • 3
  • 4
  • 5
 
Accuracy:
  • Currently 3.5/5 Stars.
  • 1
  • 2
  • 3
  • 4
  • 5
 
click stars to rate
Chordie recommends:
Get acoustic guitar lessons and electric guitar lessons at JamPlay.com
Songbook:
Login to add this song to your songbook
Support the artist
Preview/buy this song
MSN Music
Why this non-profit ad?

 
login to add comments/video/corrections