Chordie logo


What Ive Done   Linkin Park



| Ultimate Guitar Tabs Archive - your #1 source for tabs!               |
| http://www.ultimate-guitar.com/                                       |
|                                                                       |
| Over 200,000 guitar, guitar pro and bass tabs! Also lessons, news,    |
| columns and guitar forums!                                            |


Artist: Linkin Park
Song: What Ive Done


retabbed all..April 16 2007

INTRO/verse


main riff
e|-----10---10--10-11-10----10----10---10-11-10--------10----10---10-11-10---|
b|---------------------------------------------------------------------------|
g|--12----12--12--------12---12----12-------------12----12-----12------------|
d|---------------------------------------------------------------------------|
A|---------------------------------------------------------------------------|
E|---------------------------------------------------------------------------|
]
guitar2(PIANO)
e|-----------------------------------|
b|-----------------------------------|
g|-----------3~---------------5~-----|
d|-5~--------3~-------3~------5~-----|2X
A|-5~--------1~-------3~------3~-----|
E|-3~-----------------1~-------------|
then
guitar1

(i'm not yet sure of this)
e|----------------------------------------------------|
b|----------------------------------------------------|
g|----------------------------------------------------|
d|xx-55555555-77-888888-1010-333333-10101010----------|
A|xx-55555555-77-888888-1010-333333-10101010----------|
E|xx-33333333-55-666666-8--8-111111-88888888----------|


e|---------------------------------------------------|
b|---------------------------------------------------|
g|---------------------------------------------------|
d|-77-555555-77-888888-1010-333333-10101010--5~------|
A|-77-555555-77-888888-1010-333333-10101010--5~------|
E|-55-333333-55-666666-8--8-111111-88888888--3~------|

lead guitar
E|---------------------------------------------------|    |-------|
B|---------------------------------------------------|    |-------|
G|---------------------------------------------------|    |-------|
D|-888888--7-7--88888--10-10-77777777-5-5-5-5-5-5-7-7| 2x |-8~----|
A|---------------------------------------------------|    |-------|
D|---------------------------------------------------|    |-------|


VERSE 1
Gm-Bb-F-C-2x(PIANO)

e|-----10---10--10-11-10----10----10---10-11-10--------10----10---10-11-10---|
b|---------------------------------------------------------------------------|
g|--12----12--12--------12---12----12-------------12----12-----12------------|
d|---------------------------------------------------------------------------|
A|---------------------------------------------------------------------------|
E|---------------------------------------------------------------------------|

ref
Eb-F

 CHORUS-Gm-Bb-F-C-
guitar1

e|------------------------------------------------------|
b|------------------------------------------------------|
g|------------------------------------------------------|
d|xxxx-55555555-77-888888-1010-333333-10101010----------|
A|xxxx-55555555-77-888888-1010-333333-10101010----------|
E|xxxx-33333333-55-666666-8--8-111111-88888888----------|


e|---------------------------------------------------|
b|---------------------------------------------------|
g|---------------------------------------------------|
d|-77-555555-77-888888-1010-333333-10101010--5~------|
A|-77-555555-77-888888-1010-333333-10101010--5~------|
E|-55-333333-55-666666-8--8-111111-88888888--3~------|


lead guitar
E|---------------------------------------------------|    |-------|
B|---------------------------------------------------|    |-------|
G|---------------------------------------------------|    |-------|
D|-888888--7-7--88888--10-10-77777777-5-5-5-5-5-5-7-7| 2x |-8~----|
A|---------------------------------------------------|    |-------|
D|---------------------------------------------------|    |-------|

VERSE 2 Piano chords

----------------------------------------------------------------------------| Gm-Bb-F- C -G -B- F -C
e|-----10---10--10-11-10----10----10---10-11-10--------10----10---10-11-10--|
b|--------------------------------------------------------------------------|
g|--12----12--12--------12---12----12-------------12----12-----12-----------|
d|--------------------------------------------------------------------------|
A|--------------------------------------------------------------------------|
E|--------------------------------------------------------------------------|

Refrain-
 Eb-F
CHORUS--Gm-Bb-F-C-

e|--------------------------------------------------------|
b|--------------------------------------------------------|
g|--------------------------------------------------------|
d|xxxx-55555555-77-888888-1010-333333-10101010------------|
A|xxxx-55555555-77-888888-1010-333333-10101010------------|
E|xxxx-33333333-55-666666-8--8-111111-88888888------------|


e|-----------------------------------------------------------|
b|-----------------------------------------------------------|
g|--------------------------------------555555--7-8-10-12----|
d|--77-555555-77-888888-1010-3333333----555555--7-8-10-12----|
A|--77-555555-77-888888-1010-3333333----333333--5-6-8-10-----|
E|--55-333333-55-666666-8--8-1111111-------------------------|

lead guitar
e|---------------------------------------------------|    |----------|
b|---------------------------------------------------|    |----------|
g|---------------------------------------------------|    |----------|
d|-888888--7-7--88888--10-10-77777777-5-5-5-5-5-5-7-7| 2x |-8-10-12--|
A|---------------------------------------------------|    |----------|
E|---------------------------------------------------|    |----------|

BRIDGE Part 1 - Solo

Guitar 1
e|------------------------------------------------|    |--------------|
b|-----------------8-11------------------8-10-8-6-|  x2|--------------|
g|-7-10-7-10-10-10-------7-10-7-10-10-10----------|    |-8-11-8-6---8-|
d|------------------------------------------------|    |----------7---|
A|------------------------------------------------|    |--------------|
e|------------------------------------------------|    |--------------|

g2




e|------------------------------------------------------|
b|------------------------------------------------------|
g|------------------------------------------------------|
d|xxxx-55555555-77-888888-1010-333333-10101010----------|
A|xxxx-55555555-77-888888-1010-333333-10101010----------|
E|xxxx-33333333-55-666666-8--8-111111-88888888----------|


e|-------------------------------------------------------|
b|-----------------------------------------------------=-|
g|--------------------------------------555555--7-8-10---|
d|--77-555555-77-888888-1010-3333333----555555--7-8-10---|
A|--77-555555-77-888888-1010-3333333----333333--5-6-8----|
E|--55-333333-55-666666-8--8-1111111---------------------|

bridge-silence-Gm-Bb-F-C-
LESSEN THE VOLUME
guitar2(PIANO)
e|-------------------------------------|
b|-------------------------------------|
g|---------333333-----------555555-----|
d|-555555--333333---333333--555555-----|2X
A|-555555--111111---333333--333333-----|
E|-333333-----------111111-------------|
then
guitar1
e|----------------------------------------------------|
b|----------------------------------------------------|
g|----------------------------------------------------|
d|xx-55555555-77-888888-1010-333333-10101010----------|
A|xx-55555555-77-888888-1010-333333-10101010----------|
E|xx-33333333-55-666666-8--8-111111-88888888----------|


e|---------------------------------------------------|
b|---------------------------------------------------|
g|---------------------------------------------------|
d|-77-555555-77-888888-1010-333333-10101010--5~------|
A|-77-555555-77-888888-1010-333333-10101010--5~------|
E|-55-333333-55-666666-8--8-111111-88888888--3~------|


CHORUS-to-end-Gm-Bb-F-C-

guitar1
e|----------------------------------------------------|
b|----------------------------------------------------|
g|----------------------------------------------------|
d|xx-55555555-77-888888-1010-333333-10101010----------|
A|xx-55555555-77-888888-1010-333333-10101010----------|
E|xx-33333333-55-666666-8--8-111111-88888888----------|


e|---------------------------------------------------|
b|---------------------------------------------------|
g|---------------------------------------------------|
d|-77-555555-77-888888-1010-333333-10101010--5~------|
A|-77-555555-77-888888-1010-333333-10101010--5~------|
E|-55-333333-55-666666-8--8-111111-88888888--3~------|

lead-
e|-------------------------------------------------------------------------|
b|-------------------------------------------------------------------------|
g|-------------------------------------------------------------------------|
D|-888888--77--888888--10-10-77777777-5555555-77777-888888-77--888888-10-10|
A|-------------------------------------------------------------------------|
E|-------------------------------------------------------------------------|

e|-----------------------------------|
b|-----------------------------------|
g|-----------------------------------|
D|-77777777--55555555--5555555-------|
A|-----------------------------------|
E|-----------------------------------|


piano end~
e|-----10---10--10-11-10----10----10---10-11-10--------10------------|
b|-------------------------------------------------------------------|
g|--12----12--12--------12---12----12-------------12-----------------|
d|-------------------------------------------------------------------|
A|-------------------------------------------------------------------|
E|-------------------------------------------------------------------|


di me masyadong sure d2...wala p kasi ako nung cd nung kanta para aus..hehehe...cguro 
nkabili na me aus na aus na ito...heheh
hi to june anne..
hi lucena! vote me for president!

rakiztahz_03@yahoo.com

END

+--------------------------------------------------------------------------+
| This file is the author's own work and represents their interpretation   |
| of the song. You may only use this file for private study, scholarship,  |
| or research.                                                             |
+--------------------------------------------------------------------------+



Important: The song above is NOT stored on the Chordie server. The original song is hosted at www.ultimate-guitar.com. Chordie works as a search engine and provides on-the-fly formatting. Chordie does not index songs against artists/composers will. To remove this song please click here.

This song is displayed as text-only. Transposing and tuning is only available for chordpro-songs.

Login - add to songbook

Rating click stars to rate

Layout
Accuracy

SHARE PAGE  




You need to log in to post comments

juriejnr (report)

I love LP

lespaulboi (report)

To be honest your main riif seems alittle off. It should be.
e 12 12 12 13 12
a9 9 9
d
g
b
e