"yes"; ?> Pagdating Ng Panahon by Aiza Seguerra - guitar chords, guitar tabs and lyrics - chordie

Pagdating Ng Panahon

Aiza Seguerra

Tuning: E-A-D-G-B-E

----------------------------------------------------
---0---------0-----------------------1--3--1--------
-------1--------1----------------2-------------2----
----------2--------2----------2---------------------
---------------------------0------------------------
---0------------------------------------------------
 EAm

----------------------------------------------------
---0---------0-----------------------1--3--1--------
-------1--------1----------------2-------------2----
----------2--------2----------2---------------------
---------------------------0------------------------
---0------------------------------------------------

 EAm
VERSE:

----------------0------------------------------------------------------------0--
-------------------0----------------5---------------------2--------4----------2-
------------1--------2-----------4----4---------------2--------4--------1------1
----------2-------------------6---------6---------2----------4--------2---------
-------2--------------------4-------------------0---------2---------2-----------
----0--------------------------------------------------------------0------------

 EC#m7ABE
Alam ko                      hindi mo pansin  narito    lang     ako

--------------------------------------------------------------------------------
--------------5------------------------------------4-----------5-------5---4----
----------4------4----------------3--4---------4-----------5-------4------------
-------6------------6----------4-------------4-----------5-------4--------------
----4------------------------4-------------2-----------3-------2----------------
---------------------------2----------------------------------------------------

 C#m7F#mBCB
Naghihintay                lagi kita     Umaasa kahit di man ngayon

--------------0--------------------2--------------------------------------------
-----------2----2--------------------2---------------5-4------------------------
--------2---------2------------3-------3----------4-------4--------4—4-5--------
------2----------------------4------------------4-----------------4-------------
---0----------------------4------------------2------------------2---------------
------------------------2-------------------------------------------------------

 AF#BB
Mapapansin mo    rin                      mapapapansin mo rin    

VERSE 2: repeat

CHORUS:
------------0-------------------2--------------------4--------------------4-----
--------------0--------------4----4-------------------4---------------5----5----
--------1------1----------4--------4----------4--------4----------6---------6---
------2-----------------4-------------------6-------------------6---------------
----2-----------------2-------------------6-------------------4-----------------
--0-------------------------------------4---------------------------------------

 EBAbmC#m
Pagdating ng       Panahon baka    ikaw rin at             ako 
-------------------------------------------------------2------------------------
----------------2---------4------------5-----------------2-------------5-4------
--------------2---------4------4-----6------------3-------3---------4-----------
------------2---------4------6-----6-----------4------------------4-------------
---------0----------2------6-----4-----------4-----------------2----------------
--------------------------4------------------2----------------------------------

 ABAbmC#mF#B
Baka tibok ng puso koy    maging      tibok ng puso     mo      
------------0-------------------0--------------------4--------------------4-----
--------------0---------------4---4-------------------4---------------5-----5---
--------1-------1----------4--------4---------4--------4----------6----------6--
------2-----------------4-------------------6-------------------6---------------
----2-----------------2-------------------6-------------------4-----------------
--0-------------------------------------4---------------------------------------

 EBAbmC#m
Sana nga'y    mangyari yun kahit di palang                ngayon
--------------------------------------------------------2-----------------------
----------------2---------4------------5-----------------2-------------5--------
--------------2---------4------4-----6------------3-------3---------4-----------
------------2---------4------6-----6-----------4------------------4-------------
---------0----------2------6-----4-----------4-----------------2----------------
--------------------------4------------------2----------------------------------

 ABAbmC#mF#B
     Sana        ngay mahalin morin pag dating              nga 

--------------0--------------------------------
----------------0------------------------------
----------1-------1----------------------------
-------2---------------------------------------
-----2-----------------------------------------
---0-------------------------------------------

 E
Panahon…..

BRIDGE
-------------0-----------------0------------4----------------4------------------
----------2----2------------1----------------4-----------5----5-----------------
--------1--------1--------2-----------4-------4------6---------6----------------
------2------------------2-----------6--------------6---------------------------
----0------------------0-----------6--------------4-----------------------------
----------------------------------4---------------------------------------------

 AM7AmAbmC#m
Di pa siguro        bukas        Di parin           ngayon
------------------2-----------------2-------------------2------------------3----
--------------------2-----------------2--------------4----4-------------5----5--
--------------3------3---------3-------3----------4---------4--------5--------5-
------------4---------4------4------------------4-------------------5-----------
----------4----------------4------------------2-------------------3-------------
--------2----------------2------------------------------------------------------

 F#F#BC
 Malay mo            Balangaaraw          Dumating din        yun…(1fret up)

CHUROS: “new chords for chorus”
------------1-------------------3--------------------5------------------5-------
--------------1--------------5----5--------------------5-------------6---6------
--------2------2----------5--------5---------5----------5--------7--------7-----
------3-----------------5-------------------7-------------------7---------------
----3-----------------3-------------------7-------------------5-----------------
--1-------------------------------------5---------------------------------------

 FCAmDm
Pagdating ng       Panahon baka    ikaw rin at             ako 

--------------------------------------------------------3-----------------------
----------------3---------5------------6-----------------3-------------6-5------
--------------3---------5------5-----7------------4-------4---------5-----------
------------3---------5------7-----7-----------5------------------5-------------
---------1----------3------7-----5-----------5-----------------3----------------
--------------------------5---------------3-------------------------------------

 BbCAmDmGC
Baka tibok ng puso koy    maging      tibok ng puso     mo      

------------1------------------3--------------------5--------------------5------
--------------1--------------5---5--------------------5---------------6---6-----
--------2------2----------5-------5-----------5--------5----------7--------7----
------3-----------------5-------------------7-------------------7---------------
----3-----------------3-------------------7-------------------5-----------------
--1-------------------------------------5----------------------------------------

 FCAmDm
Sana nga'y    mangyari yun kahit di palang                ngayon
-----------------------------------------------------------3--------------------
----------------3---------5-----------------6---------------3----------------5--
--------------3---------5------5----------7-----------4-------4-----------5-----
------------3---------5------7----------7-----------5-------------------5-------
---------1----------3------7----------5-----------5-------------------3---------
--------------------------5-----------------------3-----------------------------

 BbCAmDmGC
         Sana        ngay mahalin mo rin       pag dating              nga

-------------1-----------------------------------1------------------------------
----------------1--------------2--4-2-------------1----------2-4-2--------------
----------2-------2---------3----------------2-----2------3---------------------
-------3------------------3-----------------3-------------3---------------------
-----3------------------1-----------------3-------------1-----------------------
---1-------------------------------------1--------------------------------------

 F
Panahon…..
---1-------------------------
---1-------------------------
---2-------------------------
---3-------------------------
---3-------------------------
---1-------------------------

F (strum down) “break”

END

+--------------------------------------------------------------------------+

| This file is the author's own work and represents their interpretation |
| of the song. You may only use this file for private study, scholarship, |
| or research. |
+--------------------------------------------------------------------------+


Ultimate-Guitar.Com © 2005


A Am7 Abm Am B Bb C C#m C#m7 Dm E F F# F#m G
variations - click chord images
Transpose chords:
Tuning:
Cool service:
View: Size:
A  A  A
Rating:
Layout:
  • Currently 1/5 Stars.
  • 1
  • 2
  • 3
  • 4
  • 5
 
Accuracy:
  • Currently 0/5 Stars.
  • 1
  • 2
  • 3
  • 4
  • 5
 
click stars to rate
Chordie recommends:
Learn to play this song & others via video guitar lessons at JamPlay.com
Songbook:
Login to add this song to your songbook
Support the artist
Preview/buy this song
MSN Music
Why this non-profit ad?

 
login to add comments/video/corrections