Dream On

Nazareth

|----------------------------------------------------|

|----------------------------------------------------|
|----------------------------------------------------|
|----------------------------------------------------|
|----------------------------------------------------|
|----------------------------------------------------|

 DGDGDA
|----2---2---2---2-----3-----2-------3----2-----------------------|
|----3---3---3---3-----3-----3-------3----3------2---2---3---3----|
|----2---2---2---2-----------2-----0------2------2---2---2---2----|
|-----------------------------------------------------------------|
|--------------------2-------------------------0---0---0----0-----|
|-----------------------------------------------------------------|

Dream on
you can either way
though u hav nothing to say
dream on
 DGDGDA
|----2---2---2---2-----3-----2-------3----2-----------------------------------|
|----3---3---3---3-----3-----3-------3----3------2---2---3---3---2---2---3---3|
|----2---2---2---2-----------2-----0------2------2---2---2---2---2---2---2---2|
|-----------------------------------------------------------------------------|
|-------------------2--------------------------0---0---0---0---0---0---0---0--|
|-----------------------------------------------------------------------------|


dream on
though its hard to tell
though ur fooling urslef
dream on

Verse

 AGD
 u laugh at me because im crying 
 AGD
 u can tell ur friends how much I begd u to stay
 AGD
 u can leave ur fantasy without u
 AGD
 but u will never know how much i lean on u

Chorus

dream on
its not easy for u
but what can i do
dream on
(Repeat the intro chords)
dream on
u can never see
what ur doin to me
dream on

Verse (repeat the verse chords)

You can crush your hart and still be lying
You can count the reasons why you threw it away
You can dream your life away without me
but u will never know how much i lean on u

Solo

|-----------------------------------------------|
|-----------------------------------------------|
|---------11h12p11-----14---------12--------16--|
|---12-14----------------------9------9/12------|
|-----------------------------------------------|
|-----------------------------------------------|
|-------------------------------------------|
|---------------------------------12/15-17--|
|--12-11h12--------------------14-----------|
|-----------14--12-------10/12 -------------|
|-------------------------------------------|
|-------------------------------------------|


u laugh at me because im crying
u can tell ur friends how much I begd u to stay
u can leave ur fantasy without u
but u will never know how much i lean on u

Chorus

dream on
its not easy for u
but what can i do
dream on

dream on
u can never see
what ur doin to me
dream on

dream on \
though its hard to tell } Just vocals
though your fooling urslef /
dream on /

END

+--------------------------------------------------------------------------+

| This file is the author's own work and represents their interpretation |
| of the song. You may only use this file for private study, scholarship, |
| or research. |
+--------------------------------------------------------------------------+


Ultimate-Guitar.Com © 2005


A D G
variations - click chord images
Transpose chords:
Tuning:
Cool service:
View: Size:
A  A  A
Rating:
Layout:
  • Currently 0/5 Stars.
  • 1
  • 2
  • 3
  • 4
  • 5
 
Accuracy:
  • Currently 0/5 Stars.
  • 1
  • 2
  • 3
  • 4
  • 5
 
click stars to rate
Chordie recommends:
Get acoustic guitar lessons and electric guitar lessons at JamPlay.com
Songbook:
Login to add this song to your songbook
Support the artist
Preview/buy this song
MSN Music
Why this non-profit ad?

 
login to add comments/video/corrections