Revolution Blues

Neil Young

-----------------------------0--------------------------1----------------|

---------3---------1---------1--------------------------3--------1-------|
---------2---------2---------2------1-------------------2--------0-------|
---------2---------2---------3------2----------------------------2-------|
-----------------------------3------2------------------------------------|
-----------------------------1-------------------------------------------|

 AsusAminAmin7
------------------------------------------------|
-----3--------1-------1---1---1---1-------------|
-----2--------2-------0---2---0---2-------------|
-----2--------2-------2---2---2---2-------------|
------------------------------------------------|
------------------------------------------------|


Now For the Verse:

 AsusAmin
Well, we live in a trailer
 AsusAmin
at the edge of town
 AsusAmin
You never see us
 AsusAmin
'cause we don't come around.
 Fmaj7
We got twenty five rifles
 Fmaj7
just to keep
 Fmaj7AsusAmin
the population down.            
 Fmaj7
But we need you now,
 Fmaj7
and that's why
 AsusAmin
I'm hangin' 'round.
 Fmaj7
So you be good to me
 Fmaj7E
and I'll be good to you,    
 E
And in this land of conditions
 AsusAmin
I'm not above suspicion
 AsusAmin
I won't attack you,

 AsusAmin
but I won't back you.

 AsusAmin
Well, it's so good to be here,
 AsusAmin
asleep on your lawn.
 AsusAmin
Remember your guard dog?
 AsusAsus
Well, I'm afraid
 AsusAmin
that he's gone.
 Fmaj7
It was such a drag
 Fmaj7
to hear him
 Fmaj7AsusAmin
whining all night long.       
 Fmaj7
Yes, that was me with the doves,
 Fmaj7
setting them free
 Fmaj7
near the factory
 AsusAmin
Where you built your computer,
love.
 Fmaj7
I hope you get the connection,
 Fmaj7
'cause I can't take
 E
 the rejection
 AsusAmin
I won't deceive you,
 AsusAmin
I just don't believe you.

Solo (just in the Amin pentatonic scale)

 AsusAmin
Well, I'm a barrel of laughs,
 AsusAmin
with my carbine on
 AsusAmin
keep 'em hoppin',
 AsusAmin
till my ammunition's gone.
 Fmaj
But I'm still not happy,
 Fmaj7
feel like
 Fmaj7AsusAmin
there's something wrong.         
 Dmin
I got the revolution blues,

I see bloody fountains,
 AsusAmin
And ten million dune buggies
 AsusAsus
comin' down the mountains.
 Fmaj7
Well, I hear that Laurel Canyon
 Fmaj7
is full of famous stars,
 AsusAmin
But I hate them worse than lepers
 AsusAmin
and I'll kill them
 AsusAmin
in their cars.

More soloing to finish

END

+--------------------------------------------------------------------------+

| This file is the author's own work and represents their interpretation |
| of the song. You may only use this file for private study, scholarship, |
| or research. |
+--------------------------------------------------------------------------+


Ultimate-Guitar.Com © 2005


Amin Amin7 Asus Dmin E Fmaj Fmaj7
variations - click chord images
Transpose chords:
Tuning:
Cool service:
View: Size:
A  A  A
Rating:
Layout:
  • Currently 5/5 Stars.
  • 1
  • 2
  • 3
  • 4
  • 5
 
Accuracy:
  • Currently 5/5 Stars.
  • 1
  • 2
  • 3
  • 4
  • 5
 
click stars to rate
Chordie recommends:
Learn to play guitar with video-based, online guitar lessons at JamPlay.com
Songbook:
Login to add this song to your songbook
Support the artist
Preview/buy this song
MSN Music
Why this non-profit ad?

 
login to add comments/video/corrections