Chordie logo

I Need You   K. Relient



| Ultimate Guitar Tabs Archive - your #1 source for tabs!               |
| http://www.ultimate-guitar.com/                                       |
|                                                                       |
| Over 200,000 guitar, guitar pro and bass tabs! Also lessons, news,    |
| columns and guitar forums!                                            |


Artist: Relient K
Song: I Need You


-------------------------------------------------------------------------------
			     I NEED YOU INTRO- Relient K
-------------------------------------------------------------------------------
Tabbed by: guitar-pro_92 a.k.a. Colby Crosby
Email: guitar-pro_92@hotmail.com

Tuning:Drop Db


Intro

tuning drop Db


harmonics and noise
\/   \/   \/    \/


Eb|--X--0--------~-|---------------------------------|-------------------------------|
Bb|--X--0--------~-|---------------------------------|--6-6-6-6-6--------------------|
Gb|--X--0--------------|---------------------------------|--9-9-9-9-9--------------------|
Db|--X--0--------------|--0-0-0~--------------------0----|--------------------------0~---|
Ab|--X--0------------------|--0-0-0~--------------------0----|--------------------------0~---|
Eb|--X--0------------------|--0-0-0~----------7--9--11b-0----|-------------7---9---11b--0~---|x3

then
|----------------------------------------------------------------------------|
|----------------------------------------------------------------------------|
|----------------------------------------------------------------------------|
|--0-0-0~--0-0-0~------------------------------------------------------------|
|--0-0-0~--0-0-0~------------------------------------------------------------|
|--0-0-0~--0-0-0~------------------------------------------------------------|


will try to get the rest of the song up by the end of the month


the chorus is this though for guitar 2 and 1

Guitar 1
Eb|----------------------------------------------------------------------------|
Bb|----------------------------------------------------------------------------|
Gb|--14-------10-------7------5------------------------------------------------|
Db|---X-------X--------X------X------------------------------------------------|
Ab|--12(x16)--8-(x16)--5(x16)-3(x16)-------------------------------------------|
Eb|----------------------------------------------------------------------------|

Guitar 2

Eb|----------------------------------------------------------------------------|
Bb|----------------------------------------------------------------------------|
Gb|----------------------------------------------------------------------------|
Db|--0-------3---------8--------10---------------------------------------------|
Ab|--0-------3---------8--------10---------------------------------------------|
Eb|--0(x16)--3(x16)----8(x16)---10(x16)----------------------------------------|

| /  slide up
| \  slide down
| h  hammer-on
| p  pull-off
| ~  vibrato
|   harmonic
| x  Mute note
===============================================================================


END

+--------------------------------------------------------------------------+
| This file is the author's own work and represents their interpretation   |
| of the song. You may only use this file for private study, scholarship,  |
| or research.                                                             |
+--------------------------------------------------------------------------+



Important: The song above is NOT stored on the Chordie server. The original song is hosted at www.ultimate-guitar.com. Chordie works as a search engine and provides on-the-fly formatting. Chordie does not index songs against artists/composers will. To remove this song please click here.

This song is displayed as text-only. Transposing and tuning is only available for chordpro-songs.

Login - add to songbook

Rating click stars to rate

Layout
Accuracy

SHARE PAGE  

You need to log in to post comments