Guitar Tabs, Chords and Lyrics


   Unknown


Alright I've seen a few versions out there and I've tried to play, and none seemed to be 
for me, so I decided to tab out the way I do it. Bear in mind I'm not going to mention 
strumming patterns, because that would take too much work.

Tuning - E Standard

Order:

Intro x 2
Intro (Distortion) x 2
Solo Part 1
Verse
Chorus
Verse
Chorus
Solo Part 2
Solo Part 3
Chorus
Intro
Chorus


Intro
|-----------|
|-----------|
|---7--9--7-|
|7--7--9--7-|
|7--5--7--5-|
|5----------|

Solo 1
|--------------------------------------------------|
|--------------------------------------------------|
|-6-6-6-7-6----6-6-6-7-6----6-6-6-7-6----6-6-6-7-9-|
|--------------------------------------------------|
|--------------------------------------------------|
|--------------------------------------------------|

|--------------------------------------------------|
|-6-6-6-7-6----6-6-6-7-6----6-6-6-7-6----6-7-9-6-7-|
|--------------------------------------------------|
|--------------------------------------------------|
|--------------------------------------------------|
|--------------------------------------------------|

Verse (Clean)

|5--2--4--2-|
|5--3--5--3-|
|6--2--4--2-|
|7----------|
|-----------|
|-----------|

Chorus

|----------------|
|----------------|
|---9--7---------|
|7--7--5---------|
|7--7--5---------|
|5---------------|

|----------------|
|----------------|
|---9--11-6--5---|
|7--7--9--6--5---|
|7--7--9--4--7---|
|5---------------|

|------2---------|
|------3---------|
|---9--2---------|
|7--7------------|
|7--7------------|
|5---------------|

|----------------|
|----------------|
|---9--11-6--5---|
|7--7--9--6--5---|
|7--7--9--4--7---|
|5---------------|


Solo Part 2

|--------------------------------------------------|
|--------------------------------------------------|
|-6-6-6-7-6----6-6-6-7-6----6-6-6-7-6----6-6-6-7-9-|
|--------------------------------------------------|
|--------------------------------------------------|
|--------------------------------------------------|

|--------------------------------------------------|
|--------------------------------------------------|
|-6-6-6-7-6----6-6-6-7-6----6-6-6-7-6----6-6-6-7-9-|
|--------------------------------------------------|
|--------------------------------------------------|
|--------------------------------------------------|

Solo Part 3

|--------------------------------------------------|
|--------------------------------------------------|
|-6-6-6-7-9----6-6-6-7-9----6-6-6-7-9---11-9-7-9-7-|
|--------------------------------------------------|
|--------------------------------------------------|
|--------------------------------------------------|

|-----------------------------------------------------------|
|-----------------------------------------------------------|
|-6-6-6-7-9----6-6-6-7-9----6h9-6h9-6h9-6h9-6h9-6h9-6h9-6h9-|
|-----------------------------------------------------------|
|-----------------------------------------------------------|


Important: The song above is NOT stored on the Chordie server. The original song is hosted at www.ultimate-guitar.com. Chordie works as a search engine and provides on-the-fly formatting. Chordie does not index songs against artists/composers will. To remove this song please click here.

This song is displayed as text-only. Transposing and tuning is only available for chordpro-songs.

Login - add to songbook

Rating click stars to rate

Layout
Accuracy

Jango Player

SHARE PAGE  




You need to log in to post comments