Holiday

Weezer

 E5F#5G#5
eb||----------------------|-------------------------------------|
Bb||------4--5--4h5p4-----|-7bbbb----7bbbbrp5--7bb~~~~~~--7b-7--|
F#||-4h6---------------6--|-------------------------------------|
C#||----------------------|-------------------------------------|
Ab||----------------------|-------------------------------------|
Eb||----------------------|-------------------------------------|

////////////////////////////////////////////////////////////////\
eb||----------------------|-------------------------------------|
Bb||----------------------|-------------------------------------|
F#||----------------------|-------------------------------------|
C#||----------------------|-------------------------------------|
Ab||----------------------|-2--2--2--2--2--4--6--6--6--6--6--6--|
Eb||----------------------|-0--0--0--0--0--2--4--4--4--4--4--4--|


 A5B5A5B5A5E5F#5G#5
eb|---------------------------7---------|-------------------------------------|
Bb|-5~~~~~~~~~--7--5--9bbrp7--10bbbb----|-8-b-b-b-b-b-bb-r-10bbbbbbbbbbbbbbbr-|
F#|-------------------------------------|-------------------------------------|
C#|-------------------------------------|-------------------------------------|
Ab|-------------------------------------|-------------------------------------|
Eb|-------------------------------------|-------------------------------------|

////////////////////////////////////////\
eb|-------------------------------------|
Bb|-------------------------------------|
F#|-------------------------------------|
C#|-------------------------------------|
Ab|-7--7--7--7--7--7--9--9--9--7--9--7--|
Eb|-5--5--5--5--5--5--7--7--7--5--7--5--|(Continued In Chords)


 A5B5A5B5A5
eb|-------------------------------------|
Bb|-10-10-10-10-9--10-12b----r--12------|
F#|-------------------------------------|
C#|-------------------------------------|
Ab|-------------------------------------|
Eb|-------------------------------------|


Verse

 E5F#5G#5A5B5A5B5A5E5
 Let's go away for a while, you and I, to a strange and distant land,
 F#5G#5A5B5
where they speak no word of truth, but we don't understand any

Chorus

 C#5E5G#5A5E5/B

eb|-------------------------------------|-------------------------------------|
Bb|-9--9--9--9--9--9--9--9--9--9--9--9--|-9--9--9--9--9--9--------------------|
F#|-------------------------------------|-------------------9--9--9--9--9--9--|
C#|-6--6--6--6--6--6--6--6--6--6--6--6--|-6--6--6--6--6--6--------------------|
Ab|-------------------------------------|-------------------7--7--7--7--7--7--|
Eb|-------------------------------------|-------------------------------------|

way. Hol - i - day, far away, to

 A5E5G#5A5E5/B
eb|-------------------------------------|-------------------------------------|
Bb|-------------------9--9--9--9--9--9--|-9--9--9--9--9--9--------------------|
F#|-------------------------------------|-------------------9--9--9--9--9--9--|
C#|-------------------6--6--6--6--6--6--|-6--6--6--6--6--6--------------------|
Ab|-7--7--7--7--7--7--------------------|-------------------7--7--7--7--7--7--|
Eb|-5--5--5--5--5--5--------------------|-------------------------------------|

stay on a hol - i - day, far away, let's go to

 A5E5G#5E5B5C5B5
eb|-------------------------------------|-------------------------------------|
Bb|-------------------------------------|-------------------------------------|
F#|-------------------------------------|-------------------------------------|
C#|-------------------9\----------------|----------------4--5--5--5--5--5--4--|
Ab|-7--7--7--7--7--7--7\-------6--------|-2--2--2--2--2--2--3--3--3--3--3--2--|
Eb|-5--5--5--5--5--5-----------4--------|-0--0--0--0--0-----------------------|

day in a heart beat, heart beat,

 E5B5C5B5E5F#5G#5
eb|-------------------------------------|-------------------------------------|
Bb|-------------------------------------|----5--4--5--4--5--------------4--5--|
F#|-------------------------------------|-4-----------------4-----------------|
C#|----------------4--5--5--5--5--5--4--|-------------------------------------|
Ab|-2--2--2--2--2--2--3--3--3--3--3--2--|-------------------------------------|
Eb|-0--0--0--0--0-----------------------|-------------------------------------|

heart beat.

 A5B5A5B5A5
eb|-------------------------------------|
Bb|-------------4--5--4h5p4-------------|
F#|-6------------------------6--4-------|
C#|----------------------------------7--|
Ab|-------------------------------------|
Eb|-------------------------------------|


Verse

 E5F#5G#5A5
 Don't bother to pack your bags or your map.
 B5A5B5A5E5
We won't need them where we're goin'.
 F#5G#5A5
We're goin' where the wind is blowin',
 B5C#5
not knowin' where we're gonna stay.

Chorus

 E5G#5A5E5/BA5E5G#5A5
 Hol-i - day, far away, to stay on a hol-i - day,
 E5/BA5E5G#5A5
far away, to stay on a hol-i - day,
 E5/BA5E5G#5
far away, let's go today in a heart beat,
 E5B5C5B5E5B5C5B5E5B5C5B5
 heart  beat, heart  beat, heart  beat,

 E5B5C5
eb|-12-12-12-12-12-12-12-12-12-12-12-12-|

Bb|-15bbbbbbbbbbbbbbbbbbbbbbbbbbbbbbbbb-|
F#|-------------------------------------|
C#|-------------------------------------|
Ab|-------------------------------------|
Eb|-------------------------------------|


Bridge

 C#5
eb|-12----------------------------------|
Bb|-15b---------------------------------|
F#|-------------------------------------|
C#|-------------------------------------|
Ab|-------------------------------------|
Eb|-------------------------------------|

We will write a

post card to our friends and family in free verse.

We will write a post card to our

On the road with Kerouac, sheltered in his Bivouac.
(friends and family in free verse. We will write a post card to our)

eb|------------------------------20-----|--------20---------------------------|
Bb|-------------------------------------|--------16---------------------------|
F#|-------------------------------------|-------------------------------------|
C#|-------------------------------------|-------------------------------------|
Ab|----7--------------------------------|-------------------------------------|
Eb|-------------------------------------|-------------------------------------|

//////////////////////////////////////////////////////////////////////////////\
eb|--------------------16---------------|(16)----------------------(16)\14\12-|
Bb|-------------------------------------|-------------------------------------|
F#|-------------------------------------|-------------------------------------|
C#|-------------------------------------|-------------------------------------|
Ab|-------------------------------------|-------------------------------------|
Eb|-------------------------------------|-------------------------------------|

On this road will never die.
(friends and family in free verse.)

 E5B5C5B5E5B5C5B5
eb|-------------------------------------|-------------------------------------|
Bb|-------------------------------------|-------------------------------------|
F#|-------------------------------------|-------------------------------------|
C#|-9--9--9--9--9--9--10-10-10-10-10-9--|-9--9--9--9--9--9--10-10-10-10-10-9--|
Ab|-7--7--7--7--7--9--10-10-10-10-10-9--|-7--7--7--7--7--9--10-10-10-10-10-9--|
Eb|----------------7--8--8--8--8--8--7--|----------------7--8--8--8--8--8--7--|


 E5B5C5B5E5B5C5B5
 Heart beat, heart beat.

Verse

 E5F#5G#5A5B5A5B5A5
eb|----0-----0-----0-----------------0--|----------------0--------------------|
Bb|-0-----4-----4-----0-----------4-----|-2-----------4-----4-----2--0--------|
F#|-------------------------------------|----------------------------------2--|
C#|-------------------------------------|-------------------------------------|
Ab|-------------------------------------|-------------------------------------|
Eb|-------------------------------------|-------------------------------------|

Let's go away for a while, you and I , to a strange and distant

 E5F#5G#5A5B5
eb|-------------------------------------|-------------------------------------|
Bb|-------------------9-----7-----------|----------7--7-----------------------|
F#|-1--------9-----9-----------9-----8--|-6--------------9--8-----6-----------|
C#|-------------------------------------|----------------------------9-----7--|
Ab|-------------------------------------|-------------------------------------|
Eb|-------------------------------------|-------------------------------------|

land, where they speak no word of truth, but we don't understand any

 E5G#5A5E5/BA5
eb|-------------------------------------|-------------------------------------|
Bb|----------9--9--9--9--9--9--9--9--9--|-------------------------------------|
F#|-------------------------------------|-9--9--9--9--9--9--------------------|
C#|-6--------6--6--6--6--6--6--6--6--6--|-------------------7--7--7--7--7--7--|
Ab|-------------------------------------|-7--7--7--7--7--7--7--7--7--7--7--7--|
Eb|-------------------------------------|-------------------5--5--5--5--5--5--|

Hol - i - day, far a - way, to stay on a
(way.)

 E5G#5A5E5/BA5
eb|-------------------------------------|-------------------------------------|
Bb|-9--9--9--9--9--9--9--9--9--9--9--9--|-------------------------------------|
F#|-------------------------------------|-9--9--9--9--9--9--------------------|
C#|-6--6--6--6--6--6--6--6--6--6--6--6--|-------------------7--7--7--7--7--7--|
Ab|-------------------------------------|-7--7--7--7--7--7--7--7--7--7--7--7--|
Eb|-------------------------------------|-------------------5--5--5--5--5--5--|

hol - i - day, far a - way, to stay on a

 E5G#5A5E5/B
eb|-------------------------------------|-------------------------------------|
Bb|-----------------------4--5--4h5p4---|-------------------------------------|
F#|-------------------4h6-------------6-|-------------------------------------|
C#|-------------------------------------|-------------------9--9--9--9--9--9--|
Ab|-2--------6--------------------------|-7--7--7--7--7--7--7--7--7--7--7--7--|
Eb|-0--------4--------------------------|-5--5--5--5--5--5--7--7--7--7--7--7--|

hol - i day, far away, to
(Let's go away!

 A5E5G#5
eb|-------------------------------------|-------------------------------------|
Bb|-------------------9--9--9--9--9--9--|-9--9--9--9--9--9--------------------|
F#|-------------------------------------|-------------------9--9--9--9--9--9--|
C#|-------------------6--6--6--6--6--6--|-6--6--6--6--6--6--------------------|
Ab|-7--7--7--7--7--7--------------------|-------------------7--7--7--7--7--7--|
Eb|-5--5--5--5--5--5--------------------|-------------------------------------|

stay on a hol - i - day, far away, to
Let's go away! Let's go away!

 A5E5G#5A5C#5B5F#5
eb|-------------------------------------|-------------------------------------|
Bb|-------------------------------------|-------------------------------------|
F#|-------------------------------------|-------------------------------------|
C#|-------------------2-----------------|----------6--------4-----------------|
Ab|-7--7--7--7--7--7--2--------6--------|-7--------4--------2--------4bbbbr---|
Eb|-5--5--5--5--5--5--0--------4--------|-5--------------------------2bbbbr---|

stay in a heart beat.
Let's go away!)

 E5
eb|-------------------------------------|-------------------------------------|
Bb|-------------------------------------|-------------------------------------|
F#|-------------------------------------|-------------------------------------|
C#|-------------------------------------|-------------------------------------|
Ab|-2-----------------------------------|-------------------------------------|
Eb|-0-----------------------------------|------------------(0)----------------|
eb|-------------------------------------|-------------------x-----------------|
Bb|-------------------------------------|-------------------------------------|
F#|-------------------------------------|-------------------------------------|
C#|-------------------------------------|-------------------------------------|
Ab|-------------------------------------|-------------------------------------|
Eb|------------4/-----------------------|-------------------------------------|
eb|-------------------------------------||
Bb|-x\----------------------------------||
F#|-x\----------------------------------||
C#|-x\----------------------------------||
Ab|-------------------------------------||
Eb|-------------------------------------||


END

+--------------------------------------------------------------------------+

| This file is the author's own work and represents their interpretation |
| of the song. You may only use this file for private study, scholarship, |
| or research. |
+--------------------------------------------------------------------------+


Ultimate-Guitar.Com © 2005


A5 B5 C#5 C5 E5 E5/B F#5 G#5
variations - click chord images
Transpose chords:
Tuning:
Cool service:
View: Size:
A  A  A
Rating:
Layout:
  • Currently 0/5 Stars.
  • 1
  • 2
  • 3
  • 4
  • 5
 
Accuracy:
  • Currently 0/5 Stars.
  • 1
  • 2
  • 3
  • 4
  • 5
 
click stars to rate
Chordie recommends:
Get acoustic guitar lessons and electric guitar lessons at JamPlay.com
Songbook:
Login to add this song to your songbook
Support the artist
Preview/buy this song
MSN Music
Why this non-profit ad?

 
login to add comments/video/corrections