Chordie logo


   Various Artists













BRUISE PRISTINE - Placebo

HIGH E TUNED DOWN TO B THEN ALL TUNED UP HALF A STEP. 

b:-12-------------------------------------------------------------|
B:-12-------------------------------------------------------------|
G:-12--HARMONIC-IN-RHYTHM-THEN---9--9--9--9--9--9--9--9--9--9--9--|
D:-12----------------------------9--9--9--9--9--9--8--8--8--8--8--|
A:-12----------------------------7--7--7--7--7--7--7--7--7--7--7--|
E:-12----------------------------0--0--0--0--0--0-----------------|

   RHY FIG. 1 MAIN RIFF
b:----------------------------------------------------------------|
B:----------------------------------------------------------------|
G:9--9--9--9--9--9--9--9--9--9--9---------------------------------|
D:9--9--9--9--9--9--8--8--8--8--8---------------------------------|
A:7--7--7--7--7--7--7--7--7--7--7--10-10-10-10-10-10-10-9--9--9--9|
E:0--0--0--0--0--0-----------------8--8--8--8--8--8--8--8--8--8--8|

b:----------------------------------------------------------------|
B:----------------------------------------------------------------|
G:----------------------------------------------------------------|
D:----------------------------------------------------------------|
A:--9--9--9--9--9--10-10-10-10-10-10-10-9--9--9--9--9--9--9--9--9-|
E:--8--8--8--8--8--8--8--8--8--8--8--8--8--8--8--8--8--8--8--8--8-|

b:----------------------------------------------------------------|
B:----------------------------------------------------------------|
G:--9--9--9--9--9--9--9--9--9--9--9--9--9--9--9--9--9--9--9--9----|
D:--9--9--9--9--9--8--8--8--8--8--9--9--9--9--9--8--8--8--8--8----|
A:--7--7--7--7--7--7--7--7--7--7--7--7--7--7--7--7--7--7--7--7--10|
E:--0--0--0--0--0-----------------0--0--0--0--0-----------------8-|

b:----------------------------------------------------------------|
B:----------------------------------------------------------------|
G:----------------------------------------------------------------|
D:----------------------10-10-10-10-10----------------------------|
A:-10-10-10-10-10-10-9--9--9--9--9--9--10-10-10-10-10-10-10-9--9--|
E:-8--8--8--8--8--8--8--8--8--8--8--8--8--8--8--8--8--8--8--8--8--|

b:----------------------------------------------------------------|
B:----------------------------------------------------------------|
G:----------------------------------------------------------------|
D:10-10-10-10-----------------------------------------------------|
A:9--9--9--9------------------------------------------------------|
E:8--8--8--8------------------------------------------------------|

b:-------------------------------------------------0--0--1--1--2--|
B:-------------------------------------------------0--0--1--1--2--|
G:-------------------------1--1--2--2--3--3--4--4--1--1--2--2--3--|
D:-2--2--3--3--4--4--5--5--2--2--3--3--4--4--5--5--2--2--3--3--4--|
A:-2--2--3--3--4--4--5--5--2--2--3--3--4--4--5--5--2--2--3--3--4--|
E:-0--0--1--1--2--2--3--3--0--0--1--1--2--2--3--3--0--0--1--1--2--|
    RHY FIG. 2  "BRUISE PRISTINE" PART

b:2--3--3---------------------------------------------------------|
B:2--3--3---------------------------------------------------------|
G:3--4--4---------------------------------------------------------|
D:4--5--5--10-10-10-10-10-10-10-10-10-10-10-10--------------------|
A:4--5--5--10-10-10-10-10-10-10-10-10-10-10-10--------------------|
E:2--3--3--8--8--8--8--8--8--8--8--8--8--8--8---------------------|

b:-12------------|
B:-12------------|
G:-12----HARMONIC|
D:-12------------|
A:-12------------|
E:-12------------|
   RHY FIG.3 "I'LL CALL, I'LL CALL, I'LL CALL YOU UP" BIT. STRUM REPEATEDLY.


Important: The song above is NOT stored on the Chordie server. The original song is hosted at www.ultimate-guitar.com. Chordie works as a search engine and provides on-the-fly formatting. Chordie does not index songs against artists/composers will. To remove this song please click here.

This song is displayed as text-only. Transposing and tuning is only available for chordpro-songs.

Login - add to songbook

Rating click stars to rate

Layout
Accuracy

SHARE PAGE  




You need to log in to post comments