Chordie logo

The Crawl   Various Artists


#-----------------------------PLEASE NOTE-------------------------------------#










Song: The Crawl

Group: Placebo

Album: Without you I'm nothing

Tabbed By: Philip.self@cwcom.net

This is a great song off their latest album. When they did it at =
Glastonbury in

98 they used just drums guitar and vocals, whether there's a bass on the =
CD I'm not

sure. But here is the guitar part. It's not very god but you can mess =
around with

it to figure out the rhythm etc. It should be some help tho!

BTW - Its in placebo tuning but has the low F string tuned down to an E =
- Basically Dropped D tuning all taken up a tone!

Again I'm using a scribbled on bit of paper as my guide so it won't be =
that accurate!

Fill 1=20

Intro/Main Riff                  |***1,2,3Time***|***4th Time***|

F--------------------------------|---------------|----------------|

C--------------------------------|---------------|----------------|

Ab-------------------------------|---------------|----------------|

Eb-------------------------------|---------------|----------------|

Bb--12-10\8-8---8---10-8\7-7---7-|---7----7---7--|---7----7-8-8-7-|

E---0-------0---0---0------0---0-|-7-7--7---7-7--|-7-7--7---7-7-7-|

Bridge

F----------------------------------------|

C----------------------------------------|

Ab---------------------------------------| x 2

Eb------5-----5-5-5-------5-5--5-5-5-5-5-|

Bb--5-5-5-5-5-5-5-5--5-5--5-5--7-7-7-7-7-|

E---5-5---5-5-5-5-5--5-5--5-5--5-5-5-5-5-|

Amazing Grace..

Chorus

F---------------------------------------------------|

C---------------------------------------------------|=20

Ab--------0-------0----------0----------------------|

Eb-----2-----2---2---2-----3---3-2-0----0--0----(0)-|

Bb--1-----------1------1--------------1---1--0-0----|

E------------------------------------------------0--|

Lay me down






Fill 1 (2nd verse only)

F-------------------------------|

C-------------------------------|

Ab------9------9-----9------9---|

Eb---7-----10-----7-----10------|

Bb------------------------------|

E-------------------------------|

Tab Key

/ \- Slide up or down to note indicated


That's about it, any queries send them to me. Thanx. PHIL:)


Important: The song above is NOT stored on the Chordie server. The original song is hosted at www.ultimate-guitar.com. Chordie works as a search engine and provides on-the-fly formatting. Chordie does not index songs against artists/composers will. To remove this song please click here.

This song is displayed as text-only. Transposing and tuning is only available for chordpro-songs.

Login - add to songbook

Rating click stars to rate

Layout
Accuracy

SHARE PAGE  

You need to log in to post comments