Guitar Tabs, Chords and Lyrics


That Would Be Something   Paul McCartney



| Ultimate Guitar Tabs Archive - your #1 source for tabs!               |
| http://www.ultimate-guitar.com/                                       |
|                                                                       |
| Over 150,000 of guitar, guitar pro and bass tabs! Also lessons, news, |
| columns and guitar forums!                                            |


Artist: Paul Mccartney
Song: That Would Be Something


Intro: Riff/E

Riff/E
That would be something.
Riff/E
Really would be something. 
Riff/E
That would be something.
 A7                     E       E/G#
Reaching the phone and ringing, mama.
 A7                g   E7
Reaching the phone and ringing.
 A7                     E       E/G#
Reaching the phone and ringing, mama.
 A7                g   E7
Reaching the phone and ringing.

That would be something....

Inter: Riff/E

That would be something....

Inter.

That would be something....

Riff/E
                x2
e|--------------   
B|--------------             
G|-4--2-1-2-2-1-        
D|--------------          
A|--------------            
E|-0--0-0-0-0-0-      

e|---------------0-0-
B|-1-2-2-2-2-----0-0-
G|-------------------
D|-2-----------------
A|-0-----------------
E|-----------3-0--4--

                      x2
e|-----------------0-
B|-1-2-2-2-2-------0-
G|-------------------
D|-2-------------2---
A|-0-----------------
E|-----------3-0-----

END

+--------------------------------------------------------------------------+
| This file is the author's own work and represents their interpretation   |
| of the song. You may only use this file for private study, scholarship,  |
| or research.                                                             |
+--------------------------------------------------------------------------+



Important: The song above is NOT stored on the Chordie server. The original song is hosted at www.ultimate-guitar.com. Chordie works as a search engine and provides on-the-fly formatting. Chordie does not index songs against artists/composers will. To remove this song please click here.

This song is displayed as text-only. Transposing and tuning is only available for chordpro-songs.

Login - add to songbook

Rating click stars to rate

Layout
Accuracy

SHARE PAGE  




You need to log in to post comments

krzykat (report)

rhis is how the Grateful Dead performed it
E
That would be something
E
Really would be something
A E
Meet ya in the pouring rain
A E
Meet ya in the pouring rain, mama
A E
Meet ya in the pouring rain
E
E----------------------------|------------------------------
B----------------------------|------------------------------
G----------------------------|------------------------------
D----7^9---7--6--7--6--------|--7^9--9--7--6--7--6----------
A----------------------7-----|-----------------------7------
E--------------------------7-|------------------------------
A E
E-----------------------------------------------------------
B----------------------------------------------------------- 3X
G-----------------------------------------------------------
D-----------2--2--4--2--------2-----------------------------
A------3h4--------------------------------------------------
E---5--------------------3h4--------------------------------

alohaneil (report)

Mett you in the po