Guitar Tabs, Chords and Lyrics


Shake A Leg   Ac/Dc



| Ultimate Guitar Tabs Archive - your #1 source for tabs!               |
| http://www.ultimate-guitar.com/                                       |
|                                                                       |
| Over 150,000 of guitar, guitar pro and bass tabs! Also lessons, news, |
| columns and guitar forums!                                            |


Artist: Ac Dc
Song: Shake A Leg









Author/Artist: AC/DC
Title: Shake a Leg
Album: Back in Black
Transcribed by: Matt Foster
Email: nexthendrix806@hotmail.com

this is the whole song except the solo. if you think you
can tab the solo, be my guest.

-----|--------|---------------------------------------------------------------
-----|--------|---------------------------------------------------------------
-----|--2-----|---------------------------------------------------------------
--2--|--2--2--|---------------------------------------------------------------
--2--|--0--2--|---------------------------------------------------------------
--0--|-----0--|---------------------------------------------------------------
  intro    listen for when to play

------------------------------------------------------------------------------
------------------------------------------------------------------------------
------------------------------------------------------------------------------
------------------------------------------------------------------------------
------------------------------------------------------------------------------
--0-3-0-----------------------------------------------------------------------
  3x

------------------------------------------------------------------------------
------------------------------------------------------------------------------
------------------------------------------------------------------------------
------------------------------------------------------------------------------
-------------2-2~---4-4~---5~5~~------------------------------------------------------
--0-3>4-0-3>4----4>5----5>7------(7" = slide up and "4-0-3>4----4>5----5>7------(74-0-3>4----4>5----5>7------(7



			
				
                    

                        
                            
                            
                            
                        
                    
					

					                           

                                

                                    
                                    A
                                    
                                    
                               			
                               
                                
                             		 
                                    x
                                    

                                        Normal
                                        Lyrics
                                        Chords
                                        Tabs
																				ChordPro
                                    
                                
                                
                                    x
                                    

                                        Small
                                        Medium
                                        Large
                                    
                                
                                
                                    x
                                    

                                        Start
                                        Pause
                                        1
                                        2
                                        3
                                        4
                                        5
                                        6
                                        7
                                        
                                    
                                
                                
                                    x
                                    

                                    	
                                    	
                                    	
                                    	Text color:
                                    	
                                    	Chord color:
                                    	
                                    	
                                    	Chord grids:Images No Images
                                    	
                                    	
                                    	Font size:XS S M L XL
                                    	
                                    	
                                    	Page size:A4 Letter
                                    	
                                    	

                                    	
                                    	Save settings
                                   		Print Preview
                                    
                                

                            
                            
                            
                            
                       
					
						

														
                    

Important: The song above is NOT stored on the Chordie server. The original song is hosted at www.ultimate-guitar.com. Chordie works as a search engine and provides on-the-fly formatting. Chordie does not index songs against artists/composers will. To remove this song please click here.

This song is displayed as text-only. Transposing and tuning is only available for chordpro-songs.

Login - add to songbook

Rating click stars to rate

Layout
Accuracy

SHARE PAGE  




You need to log in to post comments

does this work (report)

I don't want to sound discouraging, but this is way off. The really cool riff is a bit of a dance between the E and the A strings with alot of slippery sliding happening on the E. Then it does similar between the A and the D strings. If you can find their version of "Baby , Please Don't Go", you'll pick up the feel in no time!