Certain Kind Of Fool

Eagles

 Dsus4DDsus4DAsus4AAsus4
He was a poor boy, raised in a small family            
 ADsus4DDsus4DAsus4AAsus4
He kind of had a craving for something no one else could see          
 ADsus4DDsus4DAsus4AAsus4
They said that he was crazy, the kind that no lady should meet      
 ADsus4DDsus4DAsus4AAsus4A
 He ran off to the city, and wandered around in the street                 

 Dsus4E5EA/EEE5E
He wants to dance,              oh yeah!
 A/EEE5EA/EEE5E
 He wants to sing,              oh yeah!
 A/EGDAsus4A
 He wants to see the lights aflashing, and listen to the thundering       

 Dsus4DDsus4DAsus4AAsus4
He saw it in a win___dow, a mark of a new kind of man           
 ADsus4DDsus4DAsus4AAsus4
 He kind of liked the feeling, so shiny smooth in his hand          
 ACGCGDA
 He took it to the country, and practised for days without rest     
 Dsus4DDsus4DAsus4AAsus4A
And then one day he felt it, he knew he could stand with the best             

 E5EA/EEE5E
They got respect,             oh yeah!
 A/EEE5EA/EEE5E
 He wants the same,              oh yeah!
 A/EGDAsus4A
 And it's a certain kind of fool who likes to hear the sound of his own name     

(Guitar solo)
 Bm
e-------------------|-----------------------------|
B-------------------|-----------------------10<12~|
G----------7--9--7--|--9<11<(9)-9<11<(9)-7--------|
D---(4)/9-----------|-----------------------------|
A-------------------|-----------------------------|
E-------------------|-----------------------------|


E ~ ~
e---------------------------|--------------------|------------------7-|
B~~~~-10<12<(10)-10<12<(10)-|-10<12<(10)-7-------|----------------7---|
G---------------------------|--------------9-7---|-----7--------------|
D---------------------------|------------------9-|-9---------9<11-----|
A---------------------------|--------------------|--------------------|
E---------------------------|--------------------|--------------------|


Bm ~ E
e--------------------|-----10-10-12-12<14---12-10|10h12--12--12-10-12-12-|
B?10p7---------------|-/12-----------------------|-----------------------|
G------9-7--------7--|---------------------------|-----------------------|
D----------9-9-------|---------------------------|-----------------------|
A--------------------|---------------------------|-----------------------|
E--------------------|---------------------------|-----------------------|

 GDA
e--12\-------------|-------------------------|--------------------------|
B------------8--8--|--------8-8--------------|-------7-7-7--------------|
G--------/9--------|-10<12-------10<12-10<12-|-9<11--------9<11<(9)-7p9-|
D------------------|-------------------------|--------------------------|
A------------------|-------------------------|--------------------------|
E------------------|-------------------------|--------------------------|


~~~~~~~~~~~~~~~~~~~~~~~
e---------------------|-------------------------|
B--9\7--7\5--5\3--3\2-|--2----------------------|
G--9\7--7\6--6\4--4\2-|--2----------------------|
D---------------------|-------------------------|
A---------------------|-------------------------|
E---------------------|-------------------------|


 Dsus4DDsus4DAsus4AAsus4
A poster on a store front, a picture of a wanted man         
 ADsus4DDsus4DAsus4
He had a reputation, spreading like fire through the land
 Dsus4DA
It wasn't for the money, at least it didn't start that way      
 Dsus4DDsus4DAsus4A7
It wasn't for the running, but now he's running ev'ryday.      

By Charlie "Eagle" Delgado
charlie_eagle7@hotmail.com

END

+--------------------------------------------------------------------------+

| This file is the author's own work and represents their interpretation |
| of the song. You may only use this file for private study, scholarship, |
| or research. |
+--------------------------------------------------------------------------+


Ultimate-Guitar.Com © 2005


A A/E A7 Asus4 Bm C D Dsus4 E E5 G
variations - click chord images
Transpose chords:
Tuning:
Cool service:
View: Size:
A  A  A
Rating:
Layout:
  • Currently 4/5 Stars.
  • 1
  • 2
  • 3
  • 4
  • 5
 
Accuracy:
  • Currently 4/5 Stars.
  • 1
  • 2
  • 3
  • 4
  • 5
 
click stars to rate
Chordie recommends:
Learn to play songs at Jamplay.com with video guitar lessons
Songbook:
Login to add this song to your songbook
Support the artist
Preview/buy this song
MSN Music
Why this non-profit ad?

 
login to add comments/video/corrections