"yes"; ?> Hey Pocky A-way by Meters - guitar chords, guitar tabs and lyrics - chordie

Hey Pocky A-way

Meters


| Ultimate Guitar Tabs Archive - your #1 source for tabs! | | http://www.ultimate-guitar.com/ | | | | Over 200,000 guitar, guitar pro and bass tabs! Also lessons, news, | | columns and guitar forums! |
Artist: Meters Song: Hey Pocky A-way
Song Title: Hey Pocky A-Way Group: The Meters Bass Player: George Porter, Jr. Bass Tab by: SCube (drum intro) |----------------| |----------------| |----------------| |----------------|
(piano enters) |----------------|----------------|----------------|----------------| |----------------|----------------|----------------|----------------| |----------------|----------------|----------------|----------------| |----------------|----------------|----------------|----------------|
(bass enters) h h h h h |-----57----1011---|-----57----1011---| |------------ - ---|-----------0 - ---| |5----------- - ---|35---------- - ---| |------------ - ---|------------ - ---|
(verse 1) |----------------|----------------|----------------|----------------| |----------------|----------------|----------------|----------------| |55---2345--------|55-2345--------|55--2345--------|55--2345--------| |---5------------|---5------------|---5------------|---5------------|
|----------------|----------------|----------------|----------------| |----------------|----------------|----------------|----------------| |55--2345--------|55--2345--------|55--2345--------|55--2345--------| |---5----------5-|---5------------|---5----------5-|---5------------|
(chorus) |----------------|----------------|----------------|----------------| |----------------|----------------|----------------|----------------| |55--2345--------|55--2345--------|2---------------|55--2345--------| |---5------------|---5----------5-|--------3-------|---5------------|
|----------------|----------------|----------------|----------------| |----------------|----------------|----------------|----------------| |5--3------------|5--3------------|5--3------------|5--3------------| |------3---------|------3---------|------3---------|------3---------|
(verse 2) |----------------|----------------|----------------|----------------| |----------------|----------------|----------------|----------------| |55--2345--------|55--2345--------|55--2345--------|55--2345--------| |---5----------5-|---5------------|---5----------5-|---5------------|
|----------------|----------------|----------------|----------------| |----------------|----------------|----------------|----------------| |55--2345--------|55--2345--------|55--2345--------|55--2345--------| |---5----------5-|---5------------|---5----------5-|---5------------|
(chorus) |----------------|----------------|----------------|----------------| |----------------|----------------|----------------|----------------| |55--2345--------|55--2345--------|2---------------|55--2345--------| |---5------------|---5----------5-|--------3-------|---5------------|
|----------------|----------------|----------------|----------------| |----------------|----------------|----------------|----------------| |5--3------------|5--3------------|5--3------------|5--3------------|
|------3---------|------3---------|------3---------|------3---------|
(intermission) |----------------|----------------|----------------|----------------| |----------------|----------------|----------------|----------------| |----------------|----------------|----------------|----------------| |----------------|----------------|----------------|----------------|
|----------------|----------------|----------------|----------------| |----------------|----------------|----------------|----------------| |----------------|----------------|----------------|----------------| |----------------|----------------|----------------|----------------|
|----------------|----------------|----------------|----------------| |----------------|----------------|----------------|----------------| |2---------------|55--2345--------|55--2345--------|55--2345--------| |--------3-------|---5------------|---5----------5-|---5----------5-|
|----------------|----------------|----------------|----------------| |----------------|----------------|----------------|----------------| |55--2345--------|55--2345--------|55--2345--------|55--2345--------| |---5------------|---5------------|---5------------|---5----------5-|
|----------------|----------------|----------------|----------------| |----------------|----------------|----------------|----------------| |55--2345--------|55--2345--------|55--2345--------|55--2345--------| |---5----------5-|---5------------|---5----------5-|---5------------|
|----------------|----------------|----------------|----------------| |----------------|----------------|----------------|----------------| |55--2345--------|55--2345--------|55--2345--------|55--2345--------| |---5----------5-|---5------------|---5----------5-|---5------------|
(verse 3) |----------------|----------------|----------------|----------------| |----------------|----------------|----------------|----------------| |55--2345--------|55--2345--------|55--2345--------|55--2345--------| |---5------------|---5------------|---5----------5-|---5------------|
|----------------|----------------|----------------|----------------| |----------------|----------------|----------------|----------------| |55--2345--------|55--2345--------|55--2345--------|55--2345--------| |---5------------|---5----------5-|---5------------|---5----------5-|
(chorus) |----------------|----------------|----------------|----------------| |----------------|----------------|----------------|----------------| |55--2345--------|55--2345--------|55--2345--------|55--2345--------| |---5------------|---5----------5-|--------3-------|---5------------|
|----------------|----------------|----------------|----------------| |----------------|----------------|----------------|----------------| |5--3------------|5--3------------|5--3------------|5--3------------| |------3---------|------3---------|------3---------|------3---------|
(outro) h |-----------1011---|----------------|----------------|----------------| |------------ - ---|----------------|----------------|----------------| |55--2345---- - ---|55--2345--------|55--2345--------|55--2345--------| |---5-------- - ---|---5------------|---5----------5-|---5------------|
|----------------|----------------|----------------|----------------| |----------------|----------------|----------------|----------------| |55--2345--------|55--2345--------|55--2345--------|55--2345--------| |---5------------|---5------------|---5----------5-|---5------------|
continue to play as song fades out
END
+--------------------------------------------------------------------------+ | This file is the author's own work and represents their interpretation | | of the song. You may only use this file for private study, scholarship, | | or research. | +--------------------------------------------------------------------------+
Ultimate-Guitar.Com © 2005












variations - click chord images
Transpose chords:
Tuning:
Cool service:
View: Size:
A  A  A
Rating:
Layout:
  • Currently 0/5 Stars.
  • 1
  • 2
  • 3
  • 4
  • 5
 
Accuracy:
  • Currently 0/5 Stars.
  • 1
  • 2
  • 3
  • 4
  • 5
 
click stars to rate
Chordie recommends:
Learn to play songs at Jamplay.com with video guitar lessons
Songbook:
Login to add this song to your songbook
Support the artist
Preview/buy this song
MSN Music
Why this non-profit ad?

 
login to add comments/video/corrections