If Your Love Is Real

David Gray

 AG#\AF#mDBmadd11EDsus2B9sus4
-|---0---|---0---|---0---|---0---|---0---|---0---|---0---|---0---|------------|
-|---5---|---5---|---0---|---3---|---3---|---0---|---3---|---5---|------------|
-|---6---|---6---|---2---|---2---|---4---|---1---|---2---|---6---|------------|
-|---7---|---7---|---4---|---0---|---4---|---2---|---0---|---7---|------------|
-|---7---|---7---|---4---|---x---|---2---|---2---|-------|---x---|------------|
-|---5---|---4---|---2---|---2---|---x---|---0---|-------|---7---|------------|


 Pick 1
 : (end of verse bit)
-|--------2-0----|------------------------------------------------------------|
-|------------9--|------------------------------------------------------------|
-|---------------|------------------------------------------------------------|
-|--------0------|------------------------------------------------------------|
-|----------0-7--|------------------------------------------------------------|
-|-7-7/9---------|------------------------------------------------------------|

If your love is real...

 BmDmadd9
-|--7---|---0---|-------------------------------------------------------------|
-|--7---|---6---|-------------------------------------------------------------|
-|--7---|---7---|-------------------------------------------------------------|
-|--9---|---7---|-------------------------------------------------------------|
-|--9---|---5---|-------------------------------------------------------------|
-|--7---|-------|-------------------------------------------------------------|

VERSE1

 AG#\A
Three days spent staring at your photograph
 F#mD
Read your letter made me laugh
 Bmadd11EDsus2A
But there's a shadow on the path
 B9sus4Pick1
Till I know
If your love is real


VERSE2
Cos its not as if a lot was said
Falling in and falling out of bed
But now the worlds turned on its head
Till I know
If your love is real

CHORUS
 BmA
Spent a long time now persuading myself
 BmA
That I don't need no one no body else

 BmDmadd9
That I felt all there was to feel


VERSE3
I'm in a daydream now I'm out to lunch
Should it come down to the crunch?
I'm wide open for that sucker punch
Till I know
If your love is real

CHORUS

VERSE4
I know if I should live one hundred years
I'd never see another face like yours
On stranger seas or brighter shores
Cos I know
That my love is real.
END

END

+--------------------------------------------------------------------------+

| This file is the author's own work and represents their interpretation |
| of the song. You may only use this file for private study, scholarship, |
| or research. |
+--------------------------------------------------------------------------+


Ultimate-Guitar.Com © 2005


A B9sus4 Bm Bmadd11 D Dmadd9 Dsus2 E F#m
variations - click chord images
Transpose chords:
Tuning:
Cool service:
View: Size:
A  A  A
Rating:
Layout:
  • Currently 0/5 Stars.
  • 1
  • 2
  • 3
  • 4
  • 5
 
Accuracy:
  • Currently 0/5 Stars.
  • 1
  • 2
  • 3
  • 4
  • 5
 
click stars to rate
Chordie recommends:
Learn how to play guitar at JamPlay.com
Songbook:
Login to add this song to your songbook
Support the artist
Preview/buy this song
MSN Music
Why this non-profit ad?

 
login to add comments/video/corrections