Monday

Jam

----------------------------------------|

-------------------------------------8--|
--------7----------------7--------7-----|
-----7-----7--5-------7-----7--5--------|
--5----------------5--------------------|
----------------------------------------|

 CC/B
Oh baby I'm dreaming of Monday
 Am7C/E
 Dreaming of Monday

 G
-----------------------|
-----------------------|
-----------------------|
--------------0--3--5--|
-----0--2--3-----------|
--3--------------------|


 DmGDmG
 Oh baby I'm dreaming of Monday
 Em7ADmG
 Oh  baby will I see you again
 DmGCC/B
 Oh baby I'm dreaming of Monday
 Am7C/E
 Dreaming of Monday

 G
-----------------------|
-----------------------|
-----------------------|
--------------0--3--5--|
-----0--2--3-----------|
--3--------------------|


 F#mBm
 Rainclouds came and stole my thunder
 F#mBm
 Left me barren like a desert
 EmBm
But a sunshine girl like you,
 EmBm
 It's worth going through
F Em*
I will never be embarrased about love again.

 DmGDmG
 Oh baby I'm dreaming of Monday
 Em7ADmG
 Oh  baby will I see you again
 DmGCC/B
 Oh baby I'm dreaming of Monday
 Am7C/E
 Dreaming of Monday

 DmGDmG
 Oh baby I'm dreaming of Monday
 Em7ADmG
 Oh  baby will I see you again
 DmGCC/B
 Oh baby I'm dreaming of Monday
 Am7C/E
 Dreaming of Monday

 G
-----------------------|
-----------------------|
-----------------------|
--------------0--3--5--|
-----0--2--3-----------|
--3--------------------|


 F#mBm
 Tortured winds that blew me over
 F#mBm
 When I start to think that I'm something special
 EmBm
They tell me that I'm not,
 EmBm
And they're right and I'm glad that I'm not
 FEm
I will never be embarrased about that again.

 DmGDmG
 DmGDmG
 Oh baby I'm dreaming of Monday
 Em7ADmG
 Oh  baby will I see you again
 DmGCC/B
 Oh baby I'm dreaming of Monday
 Am7C/E
 Dreaming of Monday

 DmGDmG
 Oh baby I'm dreaming of Monday
 Em7ADmG
 Oh  baby will I see you again
 DmGCC/B
 Oh baby I'm dreaming of Monday
 Am7C/E
 Dreaming of Monday

 DmGDmG
 Oh baby I'm dreaming of Monday
 Em7ADmG
 Oh  baby will I see you again
 DmGCC/B
 Oh baby said I'm dreaming of Monday
 Am7C/E
 Dreaming of Monday

 DmGCC/BAm7C/E
 Dm Dm G Em7 A Dm G (and fade)

END

+--------------------------------------------------------------------------+

| This file is the author's own work and represents their interpretation |
| of the song. You may only use this file for private study, scholarship, |
| or research. |
+--------------------------------------------------------------------------+


Ultimate-Guitar.Com © 2005


A Am7 Bm C C/B C/E Dm Em Em7 F F#m G
variations - click chord images
Transpose chords:
Tuning:
Cool service:
View: Size:
A  A  A
Rating:
Layout:
  • Currently 3.5/5 Stars.
  • 1
  • 2
  • 3
  • 4
  • 5
 
Accuracy:
  • Currently 3/5 Stars.
  • 1
  • 2
  • 3
  • 4
  • 5
 
click stars to rate
Chordie recommends:
Learn to play this song & others via video guitar lessons at JamPlay.com
Songbook:
Login to add this song to your songbook
Support the artist
Preview/buy this song
MSN Music
Why this non-profit ad?

 
login to add comments/video/corrections