You Really Got Me

Kinks

intro
(riff 1)
 F5G5F5G5
------------|
------------|
------------|
-3--5-5-3-5-|
-3--5-5-3-5-|
-1--3-3-1-3-|

verses
(w/riff 1)
(1)girl you really got me going you got me so i dont know what im doing
(2,3)see dont ever set me free i always wanna be your side

yeah you really got knowing you got me so i cant sleep at night
yeah you really got knowing you got me so i cant sleep at night

(riff 2)
 G5A5G5A5
------------|
------------|
------------|
-5--7-7-5-7-|
-5--7-7-5-7-|
-3--5-5-3-5-|

(w/riff 2)
yeah you really got me now you got me so I dont know what im doing now

(riff 3)
 C5D5C5D5
-----------------|
-----------------|
-----------------|
-10--12-12-10-12-|
-10--12-12-10-12-|
-8---10-10-8--10-|


(w/riff 3)
oh yeah you really got me now you got me so I cant sleep at night

chorus
 C5
you really got me you really got me you really got me     

solo
-------------------------------------------------------------------------------------------|
-------------------3-----------------------------------------------------------------------|
-5b-5b-5b-5b-5b-5b---5b6-6r5p3p0--3-0-3-0-3-0-3-0-3-0-3-5b6-6r5p3p0--3-0-3-0-3-5b6-6r5p3p0-|
-------------------------------------------------------------------------------------------|
-------------------------------------------------------------------------------------------|
-------------------------------------------------------------------------------------------|

-6p3------------------------------------------6p3---------------------------------------------------------| -----3--------------------------------------------3-------------------------------------------------------| -------5b6-6r5p3p0--3-0-3-0-3-5b6-5b6-6r5p3p0-------5b6-6r5p3p0--3-0-3-0-3--5b6-5b6-5b6-5b6-5b6--5b6--5b6-| ----------------------------------------------------------------------------------------------------------| ----------------------------------------------------------------------------------------------------------| ----------------------------------------------------------------------------------------------------------|

ending
 DD7










A5 C5 D D5 D7 F5 G5
variations - click chord images
Transpose chords:
Tuning:
Cool service:
View: Size:
A  A  A
Rating:
Layout:
  • Currently 2.8/5 Stars.
  • 1
  • 2
  • 3
  • 4
  • 5
 
Accuracy:
  • Currently 4/5 Stars.
  • 1
  • 2
  • 3
  • 4
  • 5
 
click stars to rate
Chordie recommends:
Learn to play this song & others via video guitar lessons at JamPlay.com
Songbook:
Login to add this song to your songbook
Support the artist
Preview/buy this song
MSN Music
Why this non-profit ad?

 
login to add comments/video/corrections

jimii hendrix (report comment to admin):
http://www.ultimate-guitar.com/print.phpreplaceqmarkwhat=tab&id=73020

lay out in order it appears in the song

89.240.106.10