Chordie logo

   Various Artists









Title: Tribute to Johnny
From: Zero single
Tuning: 1/2 step down

Transcribed by Barry (rinopopcan) Earles 

GET READY TO ROCK!!!

fig. 1
-----------------------------------------------------------|
-----------------------------------------------------------|
-----------------------------------------------------------|
----------------------------------------------------------5|
-------------7\-5----------7\-5------------------5--5--7---|
----0--0--0-------0--0--0---------3--3--5--5--7------------|

 p.m.--------------------------|

fig 2
-------------------------------------12------------------------|
---------------------------------------------------------------|
----------------------12-12-14-p-12----------------------------| THEN
----------12-12-14-14------------------------------------------|
----14-14---------------------------------| after 2nd time-----|
------------------------------------------|                 ---|
                                                             |
fig 3                                                        |
---------------------------------------|                     |
----12hbr------------------------------|                     |
-------------12--11---9----------------| then back to        |
-------------------------12---9--------| fig 2               |
---------------------------------------|                     |
---------------------------------------|                     |
                                                             |
                                                             |
                                                             |                                             
        |
fig 4                                                        |
----12--12---------------------------------------------

Important: The song above is NOT stored on the Chordie server. The original song is hosted at www.ultimate-guitar.com. Chordie works as a search engine and provides on-the-fly formatting. Chordie does not index songs against artists/composers will. To remove this song please click here.

This song is displayed as text-only. Transposing and tuning is only available for chordpro-songs.

Login - add to songbook

Rating click stars to rate

Layout
Accuracy

SHARE PAGE  

You need to log in to post comments