eToCache5 = ""; ?> Indiana by Samples - guitar chords, guitar tabs and lyrics - chordie

Indiana

Samples

------

----

 GDC
e|--------------------------3---------------------------------------------|
B|----------------0----------------0------------3-------------1-----------|
G|-----------0-----------------0------------2------------0--------0-------|
D|--------------------0------------------0--------------------------------|
A|----------------------------------------------------3-------------------|
E|--------3---------------------------------------------------------------|


 GDCG
  -----------------3-----------2----------0---------3------------3--------|
  ----------0-------------0-----------1---------0---------0-------------0-|
  ------0-------------0------------0---------0---------0------------0-----|
  --------------0--------------0----------3------------------0------------|
  ------------------------------------------------------------------------|
  ---3----------------------------------------------3---------------------|
  --------------------------------------3---------------------------------|
  ----------1-----------0---------0------------0----------1-----------0---|
  ------0-----------0---------0------------0----------0-----------0-------|
  -----------------------------------0------------------------------------|
  --0-----------3---------------------------------0-----------3-----------|
  -------------------------3----------------------------------------------|


Rif 2
 EmD

e|----------------------0------------------------------2------------------|
B|-------------0---------------0-------------3----------------3-----------|
G|---------0---------------0-------------2---------------2--------------0-|
D|-----------------2-----------------0-----------0------------------------|
A|-------------------------------------------------------------------3----|
E|----0-------------------------------------------------------------------|


 CG
  -------------0-------------------------- 3--------|
  ---1---------------1-----------0------------- 0---|
  ---------------0-----------0---------------0------|
  -------2---------------------------0--------------|
  --------------------------------------------------|
  -------------------------3------------------------|


Song/Lyrics:
-----------


(O'kay, this should be pretty simple. On the left you see what riff to play
while you sing the words on the right.)

Rif 1

Rif 1: I remember the first time I drove through Indiana....
Watching fences in the distance...Fade away....

Rif 2: Once there was a girl I knew there and she was pretty.
Rif 2: We kept in touch until we just went our own ways.

Rif 1: I remember the first time I drove through Indiana...Rif 1
Rif 1: Waving goodbye to the towns that we drove through...Rif 1
Rif 1: Far away I know they're deep inside a city...Rif 1
Rif 1: Rushing back and forth wanting only to get home...Rif 1

Rif 2: Once I was there in a dream meeting people.
Rif 2: Without names and without faces they lived.

Rif 1: I remember the first time I drove through Indiana...Rif 1
Rif 1: I remember the first time I drove through Indiana...Rif 1

Rif 1: (4x)

Rif 1: I remember the first time I drove through Indiana...Rif 1
Rif 1: Watching semis hauling grain to the west...Rif 1

Rif 2: They're gonna make it all the way to Colorado.
Rif 2: Where the mountians touch the sky and rivers bend.

Rif 1: I remember the first time I drove through Indiana...Rif 1
Rif 1: Thinking to myself how big this land really is...Rif 1

Rif 2: Amber waves of grain, from a highway.
Rif 2: Who lives in that house so far away?

Rif 1: I remember the first time I drove through Indiana...Rif 1
Rif 1: Watching fences in the distance fade away...Rif 1
Rif 1: I remember the first time I drove through Indiana...Rif 1
Rif 1: I remember the first time I drove through Indiana...Rif 1

(Slow) Rif 1: I remember the first time I drove through Indiana...

*fell free to e-mail me (huw_la@yahoo.com) any questions, comments,
or corrections.

END

+--------------------------------------------------------------------------+

| This file is the author's own work and represents their interpretation |
| of the song. You may only use this file for private study, scholarship, |
| or research. |
+--------------------------------------------------------------------------+


Ultimate-Guitar.Com © 2005


C D Em G
variations - click chord images
Transpose chords:
Tuning:
Cool service:
View: Size:
A  A  A
Rating:
Layout:
  • Currently 0/5 Stars.
  • 1
  • 2
  • 3
  • 4
  • 5
 
Accuracy:
  • Currently 0/5 Stars.
  • 1
  • 2
  • 3
  • 4
  • 5
 
click stars to rate
Chordie recommends:
Learn to play songs at Jamplay.com with video guitar lessons
Songbook:
Login to add this song to your songbook
Support the artist
Preview/buy this song
MSN Music
Why this non-profit ad?

 
login to add comments/video/corrections