Chordie logo

Telstar   Tornadoes



| Ultimate Guitar Tabs Archive - your #1 source for tabs!               |
| http://www.ultimate-guitar.com/                                       |
|                                                                       |
| Over 200,000 guitar, guitar pro and bass tabs! Also lessons, news,    |
| columns and guitar forums!                                            |


Artist: Tornadoes
Song: Telstar


THE TORNADOES
"Telstar"
(Joe Meek)
(#1, 12-62; the first U.S. #1 by a British act; also a one-hit wonder)


Intro:

(spacey sound effects for a few seconds, then instruments enter)

Bass: (acoustic guitar plays chords)

E		                  F
v   v   v   v    v   v   v   v    v   v   v   v
----------------|----------------|----------------|
----------------|----------------|----------------|
----------------|----------------|----------------|
0---------------|0---------------|1---------------|

F#		 G		  G#
v   v   v   v    v   v   v   v    v   v   v   v
----------------|----------------|----------------|
----------------|----------------|----------------|
----------------|----------------|----------------|
2---------------|3---------------|4---------------|

A	E (this chord might be A still, you decide)
v   v   v   v
----------------|
----------------|
0---------------|
--------0-------|


Verses 1, 2, & 3:

      A                F#m		D
 v    v   v   v   v    v   v   v   v    v   v   v   v
O----|----------------|----------------|----------------|
R----|----------------|----------------|3---2---0-------|
G----|2---------------|---------------2|------------2---|
A---2|------------2---|4-----------2---|----------------|
N----|----------------|----------------|----------------|
 ----|----------------|----------------|----------------|

B----|----------------|----------------|----------------|
A----|----------------|----------------|0---------------|
S----|0---------------|----------------|----------------|
S----|----------------|2---------------|----------------|
     (SS)

 E		  D                E
 v   v   v   v    v   v   v   v    v   v   v   v
O----------------|----------------|----------------|
R0---------------|3---2---0-------|0---------------|
G---------------2|------------2---|----------------|
A------------2---|----------------|--------2-------|
N----------------|----------------|----------------|
 ----------------|----------------|----------------|

B----------------|----------------|----------------|
A----------------|0---------------|----------------|
S2---------------|----------------|2---------------|
S----------------|----------------|--------0-------|

A				   F#m
 v   v   v   v    v   v   v   v    v   v   v   v
O0---------------|----------------|2-------0---5---|
R----------------|----------------|----------------|
G----------------|----------------|----------------|
A----------------|----------------|----------------|
N----------------|----------------|----------------|
 ----------------|----------------|----------------|

B----------------|----------------|----------------|
A----------------|----------------|4---------------|
S0---------------|0---------------|----------------|
S----------------|----------------|----------------|

 A	 D        A                        E
 v   v   v   v    v   v   v   v    v   v   v   v
O0---------------|----------------|----------------|
R--------3-----23|2---------------|2-------0-------|
G----------------|----------------|----------------|
A----------------|--------3---4---|----------------|
N----------------|----------------|----------------|
 ----------------|----------------|----------------|

B----------------|----------------|----------------|
A2-------0-------|----------------|----------------|
S----------------|4---------------|0---------------|
S----------------|----------------|--------0-------|

 A                D                Bm
 v   v   v   v    v   v   v   v    v   v   v   v
O----------------|----------------|----------------|
R2-----------2---|3---2---0-------|0---------------|
G----------------|------------2---|------------1-2-|
A----------------|----------------|----------------|
N----------------|----------------|----------------|
 ----------------|----------------|----------------|

B----------------|----------------|------------------|
A----------------|0---------------|------------------|
S0---------------|----------------|2-----------------|
S----------------|----------------|------------------|
                  |-----1st-ending-------------------|

 A		  Bm               A
 v   v   v   v    v   v   v   v    v   v   v   v
O----------------|----------------|----------------|
R----------------|0-----------0---|2---0-------0---|
G2---1-----------|----------------|--------2-------|
A--------4---2---|----------------|----------------|
N----------------|----------------|----------------|
 ----------------|----------------|----------------|

B----------------|----------------|----------------|
A----------------|----------------|----------------|
S0---------------|2---------------|2-------0-------|
S------------0---|----------------|----------------|
--1st-ending-----|-----2nd/3rd-ending--------------|


Bridge:

 |--3---||---3--|		   |--3---|
 A
 v   v   v   v    v   v   v   v    v   v   v   v
G0--0--0-0--0--2-|0---------------|----------------|
U----------------|------------0---|2--0--2---------|
I----------------|--------2-------|----------------|
T----------------|----------------|--------2-------|
A----------------|----------------|----------------|
R----------------|----------------|----------------|

B----------------|----------------|----------------|
A----------------|----------------|----------------|
S0---------------|0---------------|0---------------|
S----------------|----------------|----------------|

		  |--3---|

 v   v   v   v    v   v   v   v    v   v   v   v
G----------------|----------------|----------------|
U------------0---|2--2--0-2---3---|2-------2---0---|
I--------2-------|----------------|----------------|
T----------------|----------------|----------------|
A----------------|----------------|----------------|
R----------------|----------------|----------------|

B----------------|----------------|----------------|
A----------------|----------------|----------------|
S0---------------|0---------------|0---------------|
S----------------|----------------|----------------|

 |--3---|			   |--3---||--3---|

 v   v   v   v    v   v   v   v    v   v   v   v
G----------------|----------------|0--0--0-0--0--2-|
U---0--2-0-------|--------2---3---|----------------|
I2---------------|----------------|----------------|
T----------------|----------------|----------------|
A----------------|----------------|----------------|
R----------------|----------------|----------------|

B----------------|----------------|----------------|
A----------------|----------------|----------------|
S0---------------|0---------------|0---------------|
S----------------|----------------|----------------|
		(to coda)

				   |--3---|

 v   v   v   v    v   v   v   v    v   v   v   v
G0---------------|----------------|----------------|
U----------------|------------0---|2--0--2---------|
I----------------|--------2-------|----------------|
T----------------|----------------|--------2-------|
A----------------|----------------|----------------|
R----------------|----------------|----------------|

B----------------|----------------|----------------|
A----------------|----------------|----------------|
S0---------------|0---------------|0---------------|
S----------------|----------------|----------------|

		  |--3---|

 v   v   v   v    v   v   v   v    v   v   v   v
G----------------|----------------|----------------|
U-----------0----|2--2--0-2---3---|2-------2---0---|
I-------2--------|----------------|----------------|
T----------------|----------------|----------------|
A----------------|----------------|----------------|
R----------------|----------------|----------------|

B----------------|----------------|----------------|
A----------------|----------------|----------------|
S0---------------|0---------------|0---------------|
S----------------|----------------|----------------|

 |--3---|	  |--3---|

 v   v   v   v    v   v   v   v
G----------------|--------0-------|
U---0--2-0-------|---0------------|
I2---------------|----------------|
T----------------|2-----2---------|
A----------------|----------------|
R----------------|----------------|






B----------------|----------------|
A----------------|----------------|
S0---------------|----------------|
S----------------|0---------------|
		        	  (D.S. [verse 3] al coda)


Coda:

 |--3---|			   |--3---||--3---|
 E		  A                   A  BbB  C   C#
 v   v   v   v    v   v   v   v    v   v   v   v
G--------0-------|----------------|----------------|
U---0------------|----------------|----------------|
I----------------|----------------|----------------|
T2-----2---------|----------------|----------------|
A----------------|----------------|----------------|
R----------------|----------------|----------------|

                   |--3---||--3----------------------|
B----------------|----------------|------------------|
A----------------|----------------|------------------|
S----------------|0---------------|---0--1-2---3--4--|
S0---------------|----------------|------------------|
				   (chords are optional)

Key change to 'D'

 D		  Bm               G
 v   v   v   v    v   v   v   v    v   v   v   v
O----------------|----------------|3---2---0-------|
R3---------------|0--------------3|------------3---|
G------------2---|------------2---|----------------|
A----------------|----------------|----------------|
N----------------|----------------|----------------|
 ----------------|----------------|----------------|

B----------------|----------------|0-------0-------|
A0-------0-------|----------------|----0-------0---|
S----0-------0---|2-------2-------|----------------|
S----------------|----2-------2---|----------------|

 A                G                A
 v   v   v   v    v   v   v   v    v   v   v   v
O0---------------|3---2---0-------|0---------------|
R---------------3|------------3---|----------------|
G------------2---|----------------|--------2-------|
A----------------|----------------|----------------|
N----------------|----------------|----------------|
 ----------------|----------------|----------------|

B----------------|0-------0-------|----------------|
A2-------2-------|----0-------0---|2-------2-------|
S----0-------0---|----------------|----0------0----|
S----------------|----------------|----------------|

 D                                 Bm
 v   v   v   v    v   v   v   v    v   v   v   v
O5---------------|----------------|6-------5---9---|
R----------------|----------------|----------------|
G----------------|----------------|----------------|
A----------------|----------------|----------------|
N----------------|----------------|----------------|
 ----------------|----------------|----------------|

B----------------|----------------|----------------|
A0-------0-------|0-------0-------|----------------|
S----0-------0---|----0-------0---|2-------2-------|
S----------------|----------------|----2-------2---|

 D       G        D                D       A
 v   v   v   v    v   v   v   v    v   v   v   v




O5-------3-----23|2---------------|2-------0-------|
R----------------|------------0---|----------------|
G----------------|--------3-------|----------------|
A----------------|----------------|----------------|
N----------------|----------------|----------------|
 ----------------|----------------|----------------|

B--------0-------|----------------|----------------|
A0-----------0---|0-------0-------|0---------------|
S----0-----------|----0-------0---|----0---0-------|
S----------------|----------------|------------0---|

 D                G                A
 v   v   v   v    v   v   v   v    v   v   v   v
O2-----------2---|3---2---0-------|0-----------0---|
R----------------|------------3---|----------------|
G----------------|----------------|----------------|
A----------------|----------------|----------------|
N----------------|----------------|----------------|
 ----------------|----------------|----------------|

B----------------|0-------0-------|----------------|
A0-------0-------|----0-------0---|----------------|
S----0-------0---|----------------|0-------0-------|
S----------------|----------------|----0-------0---|

 D
 v   v   v   v    v   v   v   v    v   v   v   v
O2---0-------0---|----------------|----------------|
R--------3-------|3---------------|----------------|
G----------------|2---------------|----------------|
A----------------|----------------|----------------|
N----------------|----------------|----------------|
 ----------------|----------------|----------------|

B----------------|----------------|----------------|
A0-------0-------|0-------0-------|0-------0-------|
S----0-------0---|----0-------0---|----0-------0---|
S----------------|----------------|----------------|


 v   v   v   v    v   v   v   v    v   v   v   v
O2---------------|5---------------|10--------------|
R3---------------|7---------------|10--------------|
G----------------|----------------|----------------|
A----------------|----------------|----------------|
N----------------|----------------|----------------|
 ----------------|----------------|----------------|

B----------------|----------------|----------------|
A0-------0-------|0-------0-------|0-------0-------|
S----0-------0---|----0-------0---|----0-------0---|
S----------------|----------------|----------------|
				  |repeat bar and fade|

(More spacey sound effects after instrumental track fades)


Notes:

-All chords are played on acoustic guitar
-There are harp-like flourishes during the bridge

Structure:

-Intro
-Verse 1 (w/ first ending)
-Verse 2 (w/ second ending)
-Bridge 1 (full length)
-Verse 3 (w/ third ending)
-Bridge 2 (shorter length)
-Coda (primarily a link, 4th verse in 'D', and an ending sequence)

Questions? Comments?
E-mail Diamhed@aol.com

END

+--------------------------------------------------------------------------+
| This file is the author's own work and represents their interpretation   |
| of the song. You may only use this file for private study, scholarship,  |
| or research.                                                             |
+--------------------------------------------------------------------------+



Important: The song above is NOT stored on the Chordie server. The original song is hosted at www.ultimate-guitar.com. Chordie works as a search engine and provides on-the-fly formatting. Chordie does not index songs against artists/composers will. To remove this song please click here.

This song is displayed as text-only. Transposing and tuning is only available for chordpro-songs.

Login - add to songbook

Rating click stars to rate

Layout
Accuracy

SHARE PAGE  

You need to log in to post comments