The Clap

Yes





E-----10----------------/----------------------/-------------/---------------/


B--------7-------12-----/----------------------/----3--------/-----3-------3-/


G--------7----------12--/----11--7------9--6---/----0--4--2--/-----0-------0-/


D--7----------------12--/--------7---------7---/-0-----------/-----0-------0-/


A------------10---------/-9----------7---------/-------------/-0-2-----0-2---/


E-----------------------/----------------------/-------------/---------------/


 D/AGD/F#A/EF#7
E-----10----------------/----------------------/-------------/---------------/
B--------7-------12-----/----------------------/---7---------/-7-----7-------/
G--------7----------12--/----11--7-----9--6----/---9----9----/---9------9----/
D--7----------------12--/--------7--------7----/---8-------8-/-----8---------/
A------------10---------/-9----------7---------/-9-----------/-9-------------/
E-----------------------/----------------------/------9------/--------9----8-/


 BmAAbGBm7BmG
E----7--9--10----/-9-----7-------/--------5--7----/-5----2--2-2-/------------/
B----------------/---------------/----10--------3-/-3----3--3-3-/----3--5-3--/
G----7---------7-/----6-----6--5-/--------------4-/-2----4--4-4-/----4--4-4--/
D----9---------9-/----7-----7--6-/----5-----------/-4----4--4-4-/----5--5-5--/
A----------------/-0-------------/----------------/-2--2-2--2-2-/------------/
E-7-----7--------/---------------/-3------3-------/-------------/-3----------/
E-------------/-------------/-----------------/----------------/
B-6-5--3--5-3-/-6-5--3--5-3-/---7-----7-0-----/---7-0---7------/
G-4----4------/-4----4------/-5---7-5-----5-7-/-5-----5---5--7-/
D-5----5------/-5----5------/-----------------/----------------/
A-------------/-------------/-----------------/----------------/
E-------------/-------------/-----------------/----------------/


 D/AGD/F#A/E
E-------------------------/------------/----10--------------/-----------------/
B-------------------------/------------/-------7-----10-----/-----------------/
G-----6-----6-----6-----6-/-4--6-----2-/-------7---------10-/---11--7-------6-/
D-5-7---4-7---5-7-----7---/----7--4--2-/-7---------------10-/-------7-----9-7-/
A-------------------7-----/------------/----------10--------/-9--------7------/
E-------------------------/------------/--------------------/-----------------/


 G/DD/AGD/F#A/EF#7
E------------/-5--2-2----/----10--------------/-----------------/-------------/
B----3-------/-3--3-3--3-/-------7-----10-----/-----------------/---7---------/
G----0--4--2-/-2--2-2--2-/-------7---------10-/---11--7-------6-/---9----9----/
D-0----------/-0--0-0--0-/-7---------------10-/-------7-----9-7-/---8-------7-/
A------------/-0--0-0----/----------10--------/-9--------7------/-9-----------/
E------------/-----------/--------------------/-----------------/------9------/


 BmAAbGBm7Bm
E-------------/----7--9--10----/-9-----5-------/----3--5--7----/-5----2--2-2-/
B-7------7----/----------------/---------------/-------------3-/-3----3--3-3-/
G---9------9--/----7---------7-/----6-----6--5-/-------------4-/-2----4--4-4-/
D-----8-------/----9---------9-/----7-----7--6-/----5----------/-4----4--4-4-/
A-9-----------/----------------/-0-------------/---------------/-2--2-2--2-2-/
E-------9---8-/-7-----7--------/---------------/-3-----3-------/-------------/


 G
E--------------/--------------/--------------/--------------/---2-----2-------/
B----3-----5-3-/-6-5--3--5--3-/-6-5--3--5--3-/-6-5--3--5--3-/-----3-1---3-1-1-/
G----4-----4-4-/-4----4-------/-4----4-------/-4----4-------/-----------------/
D----5-----5-5-/-5----5-------/-5----5-------/-5----5-------/-----------------/
A--------------/--------------/--------------/--------------/-0---------------/
E-3-----3------/--------------/--------------/--------------/-----------------/


 G7
E---5------5-/---8-5---8-5--------10--------10-/----13------12---/
B-3---5-3----/-------7-----7-7-10----12-10-----/-----------------/
G------------/---------------------------------/----12--------12-/
D------------/-0-------------------------------/----12--------12-/
A------------/---------------------------------/----10-----------/
E------------/---------------------------------/--------10-------/

 G7
E-13-12------13------12-----/----1-0---------/----------------/------------/
B---------------------------/--------1-0-----/----------------/----6--6--3-/
G--------12--------------12-/------------2-0-/-----2-----2----/----4--4--4-/
D--------12--------------12-/-0--------------/-3-4---3-4------/----5--5--5-/
A-10-------------10---------/----------------/--------------3-/-2--5--5--5-/
E---------------------------/----------------/----------------/------------/


 A7D/AG
E-1-1-1----------1-/--------0--0-/-0---0---0--0--0-/----10-------------/
B-0-0-0--3--3-3--0-/-2-2--2-5--5-/-10--10--8--7--5-/-------7------8--3-/
G-0-0-0--0--0-0--0-/-0-0--0-0--0-/-0---0---0--0--0-/-------7---------4-/
D-0-0-0--0--0-0--0-/-2-2--2-5--5-/-11--11--9--7--5-/-7---------5-------/
A-2-2-2--2--2-2--2-/-0-0--0-0--0-/-0---0---0--0--0-/-------------------/
E-3-3-3--3--3-3--3-/-------------/-----------------/-------------------/


 CFBb/FEbADGC
E----8--------------/----6--------------/----5--------/-2-2-2-2--0--0-/
B-------5------6--1-/-------3------4--3-/-------2---3-/-0-0-0-0--1--1-/
G-------6---------2-/-------3-----------/-------2---2-/-0-0-0-0--0--0-/
D-5---------3-------/-3---------1-----5-/-----------0-/-0-0-0-0--2----/
A-------------------/-------------------/-0-----------/-2-2-2-2--3--3-/
E-------------------/-------------------/-------------/-3-3-3-3-------/


 F/CBbEbAbDD7
E-----13--------------/---11-------------/---10----10-/-8----------8----------/
B--------10-----11--6-/-------8-----9--4-/---10----10-/-----10-----------10---/
G--------10---------7-/-------8--------5-/---11----11-/-11---------11----11---/
D-10----------8-------/-8--------6-------/-0----------/-0-------------0-------/
A---------------------/------------------/-------0----/---------0-----------0-/
E---------------------/------------------/------------/-----------------------/


 DD7DD7
E--------------/-----------------/----10----10-/-8----------8------------/
B----3--3----3-/-1-0----0--------/----10----10-/-----10------------10----/
G----2--2-2----/-2----2-----2----/----11----11-/-11---------11-----11----/
D----0-------0-/------0--------0-/-0-----------/-0--------------0--------/
A-0-----0------/-0-------0-------/--------0----/---------0-------------0-/
E--------------/-----------------/-------------/-------------------------/


 DD7D7D7
E--------------/-----------------/-----------------/-----------------/
B----3--3----3-/-1-0----0--------/-1-0----0--------/-1-0----0--------/
G----2--2-2----/-2----2-----2----/-2----2-----2----/-2----2-----2----/
D----0-------0-/------0--------0-/------0--------0-/------0--------0-/
A-0-----0------/-0-------0-------/-0-------0-------/-0-------0-------/
E--------------/-----------------/-----------------/-----------------/
E-------------------/---------------------/---------------------/
B-1-0---------------/---------------------/-------0---1-0-------/
G-----2-------------/---------------------/-----2---2-----2---2-/
D-------3-2-0-------/-------------0-----0-/-3-4-------------4---/
A-------------3-2-0-/-------0-0-2---0-2---/---------------------/
E-------------------/-1-0-1---------------/---------------------/


 G7
E-----------8-7-5---5-/-1--1--1--1-/-1--1--1-1--1-/
B-6-5-------------5---/-0--0--0--0-/-0--0--0-0--0-/
G-----7-4-7-----------/-0--0--0--0-/-0--0--0-0--0-/
D---------------------/-0--0--0--0-/-0--0--0-0--0-/
A---------------------/-2--2--2--2-/-2--2--2-2--2-/
E---------------------/-3--3--3--3-/-3--3--3-3--3-/


 G7A7

E-0--0--0--5--5--7-/-8--7--7--0-/-1--1--1--1-/-1--1--1-1--1-/-----------/
B-3--3--3--0--0--0-/----0--0--3-/-0--0--0--0-/-0--0--0-0--0-/-2----2----/
G-2--2--2--5--5--7-/-9--7--5--2-/-0--0--0--0-/-0--0--0-0--0-/-0----0----/
D-4--4--4--0--0--0-/-0--0--0--4-/-0--0--0--0-/-0--0--0-0--0-/-2----2----/
A-5--5--5----------/----------5-/-2--2--2--2-/-2--2--2-2--2-/-0----0----/
E------------------/------------/-3--3--3--3-/-3--3--3-3--3-/-----------/


 A7
E-0---0--0-/-0----10---/-7---7--7---7-/-----------/-0---0--0---0--/-0----10-/
B-3---5--7-/-7----8----/-5---5--5---5-/-2----2----/-3---5--10--10-/-10---8--/
G-0---0--0-/-0----0----/-0---0--0---0-/-0----0----/-0---0--0---0--/-0----0--/
D-4---5--7-/-7----9----/-5---5--5---5-/-2----2----/-4---5--11--11-/-11---9--/
A-0---0--0-/-0----0----/-0---0--0---0-/-0----0----/-0---0--0---0--/-0----0--/
E----------/-----------/--------------/-----------/---------------/---------/


 A7
E-10--10-10---10--10-/-------------/-0--0---0--0--/-0----0-----/
B-8---8--8----8---8--/-2-----2-----/-3--5---14-14-/-14---12----/
G-0---0--0----0---0--/-0-----0-----/-0--0---0--0--/-0----0-----/
D-9---9--9----9---9--/-2-----2-----/-4--5---14-14-/------12----/
A-0---0--0----0---0--/-0-----0-----/-0--0---0--0--/------0-----/
E--------------------/-------------/--------------/------------/
E-7--7-7---0--0--/-0------10-----/-10--10-10--0--0--/-0-----0------/
B-5--5-5---10-10-/-10-----8------/-8---8--8---14-14-/-14----12-----/
G-7--7-7---0--0--/-0------0------/-0---0--0---0--0--/-0-----0------/
D-5--5-5---11-11-/-11-----9------/-9---9--9---14-14-/-------12-----/
A-0--0-0---0--0--/-0------0------/-0---0--0---0--0--/-------0------/
E----------------/---------------/------------------/--------------/
E-0---0--0----0--0--/-0-----10-----/-10--10-10--0--0--/-0--0---0---14--0--0--/
B-12--12-12---10-10-/-10----8------/-8---8--8---14-14-/-14-12--12--12--12-12-/
G-0---0--0----0--0--/-0-----0------/-0---0--0---0--0--/-0--0---0---0---0--0--/
D-12--12-12---11-11-/-11----9------/-9---9--9---14-14-/-14-12--12--12--12-12-/
A-0---0--0----0--0--/-0-----0------/-0---0--0---0--0--/-0--0---0---0---0--0--/
E-------------------/--------------/------------------/----------------------/
E-0--0---0---9---0--0--/-0--0---0---14--0--0--/-0--0---0---12--0--0--/
B-12-10--10--10--14-14-/-14-12--12--12--12-12-/-12-10--10--14--14-14-/
G-0--0---0---0---0--0--/-0--0---0---0---0--0--/-0--0---0---0---0--0--/
D-12-11--11--11--14-14-/-14-12--12--12--12-12-/-12-11--11--11--14-14-/
A-0--0---0---0---0--0--/-0--0---0---0---0--0--/-0--0---0---0---0--0--/
E----------------------/----------------------/----------------------/


 5/4
E-0--0---0---14--0--0--/-0--0---0---12--0--0-/-0--0---7--/--0--0--0--0---0-----/
B-14-12--12--12--12-12-/-12-10--10--14--8--7-/-7--7---5--/--12-12-12-12--12----/
G-0--0---0---0---0--0--/-0--0---0---0---0--0-/-0--0---0--/--0--0--0--0---0-----/
D-14-12--12--12--12-12-/-12-11--11--11--9--7-/-7--7---5--/---------------------/
A-0--0---0---0---0--0--/-0--0---0---0---0--0-/-0--0---0--/-4-----------------4-/
E----------------------/---------------------/-----------/---------------------/


 4/4C3/44/4E7
E-5--5--5--5--5-/-5--5--5--5--5-/-3--3--3--3--3-/-3--3--3--3-/-0--0--0--0--0-/
B-3--3--3--3--3-/-0--0--0--0--0-/-2--2--2--2--2-/-2--2--2--2-/-0--0--0--0--0-/
G-0--0--0--0--0-/-2--2--2--2--2-/-0--0--0--0--0-/-0--0--0--0-/-1--1--1--1--1-/
D-4--4--4--4--4-/-4--4--4--4--4-/-2--2--2--2--2-/-2--2--2--2-/-0--0--0--0--0-/
A-5--5--5--5--5-/---------------/-3--3--3--3--3-/-3--3--3--3-/-2--2--2--2--2-/
E---------------/---------------/---------------/------------/-0--0--0--0--0-/


 AmGAmGCFDG3/4E4/4G7/FG7/D
E-0--0--0--0--0-/-------------/-0--1--2--3--/-0--5--7--/----1------1--/
B-0--0--0--0--0-/-1--0--1--3--/-2--1--3--3--/-0--------/----0------0--/
G-1--1--1--1--1-/-2--0--2--0--/-0--2--2--4--/-1--------/--------------/
D-0--0--0--0--0-/-2--0--2--0--/-2--3--0--5--/-2--------/-3------0-----/
A-2--2--2--2--2-/-0--2--0--2--/-3-----------/----------/--------------/
E-0--0--0--0--0-/----3--------/-------------/----------/--------------/


 G7/FG7/D

E----1-------1-----/----1------1--/----1-------1-----/----1------1--/
B------0-----0-----/----1------1--/------1-----1-----/----0------0--/
G------------------/--------------/------------------/--------------/
D-3-------0-----3--/-3---------0--/-3-------0-----3--/-3------0-----/
A------------------/--------0-----/------------------/--------------/
E------------------/--------------/------------------/--------------/


 G7D7E
E----1-------1-----/----1------1--/----1-------1-----/----4------4--/
B------0-----0-----/----1------1--/------1-----1-----/----3------3--/
G------------------/--------------/------------------/----4------4--/
D-3-------0--------/-3---------0--/-3-------0-----3--/----2------2--/
A------------------/--------0-----/------------------/--------------/
E------------------/--------------/------------------/-0------0-----/


 A7
E-2-2-----0--2--0--/----4--------2--/-0-2--0------0--/----10-----9-----/
B-3-------------0--/----2--------2--/-2-------2---2--/-----------------/
G-4----4-----------/----2-----2-----/-2----2------2--/-----------------/
D-2----2--------2--/----------------/----------------/-----------------/
A------------------/-0-----0--------/-0--------0-----/----7---------7--/
E-0--------0-------/----------------/----------------/-0------0--------/


 A7
E-7----------0-0--/---------------/-----5-------------/-0--0--0-0--/
B---8--7-----8-8--/---------------/-----------------0-/-2--2--2-2--/
G-----------------/-2--2----------/-4-6---6-4----4--2-/-0--0--0-0--/
D------------7-7--/-2--2----2-4-2-/-----------5-------/-2--2--2-2--/
A----7------------/-0--0--3-------/-------------------/-0--0--0-0--/
E-0-------0-------/---------------/-------------------/------------/
E-0-0--0-0--0--/-0-3-0-----------5-/-3-0---------------/-----------------/
B-2-2--2-2--2--/-2-----3-1-0-------/-----4-3-1---3-1---/-3--1-2----------/
G-0-0--0-0--0--/-0-----------2-0---/-----------2-----2-/---------2-0-----/
D-2-2--2-2--2--/-2-----------------/-------------------/-------------2---/
A-0-0--0-0--0--/-0-----------------/-------------------/---------------0-/
E--------------/-------------------/-------------------/-----------------/


 D/AGD/F#A/ED/AG
E-----------------/----10--------------/-----------------/----10--------------/
B-----------------/-------7------12----/-----------------/-------7------12----/
G-----0-----0-----/-------7---------12-/----11-7-----9-6-/-------7---------12-/
D-0-2---0-2---2-3-/-7---------------12-/-------7-------7-/-7---------------12-/
A-----------------/----------10--------/-9--------7------/----------10--------/
E-----------------/--------------------/-----------------/--------------------/


 D/F#B7E/BAE/G#B7/F#E/BA
E-----------------/----12-------------/----------------/----12-------------/
B-------------8---/-------9-----10----/----9-------7---/-------9-----10----/
G----11-7-------7-/-------9--------9--/------9-------8-/-------9--------9--/
D-------7-------9-/-9--------7-----11-/-6----9--4----7-/-9--------7-----11-/
A-9---------------/-------------------/----------------/-------------------/
E----------7------/-------------------/----------------/-------------------/


 E/G#FE7F#7
E--------------/-*----0-----3--/-0-3-----------/----2-----0---/-2-----2-------/
B----9----7----/-*----0-----0--/-0-0---3--0----/----5---------/---5-----5-----/
G------9--9----/-*-------------/-------1--1----/----3-------3-/-----3---------/
D-6----9--9----/-*----2-----2--/----2--------2-/-4------------/-4-------------/
A--------------/-*-------------/---------------/-------3------/-----------3-4-/
E------------3-/-*-0-----0-----/-0------0------/--------------/---------------/


 A7
E----0------3--/-0-3--0-------/------------/------------*-/
B----2------2--/----------2---/------------/------------*-/
G--------------/------------0-/-1--2--3--4-/-5--6--7--8-*-/
D----2---------/--------------/------------/------------*-/
A-0------0-----/-0------------/------------/------------*-/
E--------------/-------0------/-0--1--3--4-/-5--6--7--8-*-/


 Edim

E-12-12-9--------------/----12-------------------/----------------------/
B---------12-12-9------/-------------------------/----------------------/
G-----------------11-9-/-11----12-11-9-11-9------/------9------9--------/
D----------------------/--------------------11-9-/-9-11---9-11----------/
A----------------------/-------------------------/---------------10-9-7-/
E----------------------/-------------------------/----------------------/
E--------0--0-/---0-3-----0-----/-----------------/-----0-----------------/
B--------2----/-2-------2-------/-2-----------0-0-/---0----0-0--------0---/
G--------1----/-------3-----0-3-/-----0-3---------/-3----------2-0-2--0-1-/
D--------2----/-----------------/---2-------------/-----------------------/
A-9-7----2----/-----------------/----------3------/-----------------------/
E-----9--0----/-----------------/-----------------/-----------------------/


 E6/9
E---------12-----/
B---------12-----/
G---------11-----/
D-2-------14-----/
A---------11-----/
E----0-----------/


END

+--------------------------------------------------------------------------+

| This file is the author's own work and represents their interpretation |
| of the song. You may only use this file for private study, scholarship, |
| or research. |
+--------------------------------------------------------------------------+


Ultimate-Guitar.Com © 2005