""; ?> Aso by Siakol - guitar chords, guitar tabs and lyrics - chordie

Aso

Siakol

-------------------------------------------------------------------------------

-------------------------------------------------------------------------------

 CFGC
ako'y may alaga asong mataba       
 FGC
bunto't ay mahaba makinis ang mukha          
 AmEmDmC
mahal niya ako mahal ko rin sya    
 FGC
kaya kaming dalawa ay laging magkasama              

Solo
e|----------------------------------------------------------------------------|
B|------------8h9h10-10----------------------------8h9h10-10------------------|
G|-8h9-11-12------------9h11-11-11-8h9-9—8h9-11-12-----------9h11-11-11-9h11-8|
D|----------------------------------------------------------------------------|
A|----------------------------------------------------------------------------|
E|----------------------------------------------------------------------------|


 CFGG
kung ako ay aalis siya'y sumusunod      
 FGC
sa aking pagbabalik pamawi ng pagod            
 AmEmDmC
mahal niya ako mahal ko rin sya  
 FGC
hindi lang sya alaga kaibigan ko pa          

Solo
e|----------------------------------------------------------------------------|
B|------------8h9h10-10----------------------------8h9h10-10------------------|
G|-8h9-11-12------------9h11-11-11-8h9-9—8h9-11-12-----------9h11-11-11-9h11-8|
D|----------------------------------------------------------------------------|
A|----------------------------------------------------------------------------|
E|----------------------------------------------------------------------------|


 AmEmDmC
 kahit hayop ay dapat ring mahalin    
 FCGC
lalo't maamo at masunurin      
 AmEmDmC
sila'y alagaan at wag pababayaan      
 FCGC
tao at hayop may unawaan          

Solo
e|---------------------------------------------------------------------------|
B|-9s12-12-8h10-10-9-9h10-12-12-------------------------8---10-11-11h12-12-12|
G|------------------------------10h12-12-12-11-9--9-9-9---9------------------|
D|---------------------------------------------------------------------------|
A|---------------------------------------------------------------------------|
E|---------------------------------------------------------------------------|
e|-9-8-----------------------------------------------------------------------|
B|-----9h11-11-9h11-11-8-7---------------------------------------------------|
G|---------------------------------------------------------------------------|
D|---------------------------------------------------------------------------|
A|---------------------------------------------------------------------------|
E|---------------------------------------------------------------------------|


 CFGC
sa aking pag iisa aso ko ang kasama        
 FGC
sa aking pagtulog katabi ko sa kama        
 AmEmDmC
mahal niya ako mahal ko rin sya   
 FGC
pag lalambing niya aking damang dama    

Solo
e|----------------------------------------------------------------------------|
B|------------8h9h10-10----------------------------8h9h10-10------------------|
G|-8h9-11-12------------9h11-11-11-8h9-9—8h9-11-12-----------9h11-11-11-9h11-8|
D|----------------------------------------------------------------------------|
A|----------------------------------------------------------------------------|
E|----------------------------------------------------------------------------|


 CFGC
pag siya'y binabato aking pinagtatanggol          
 FGC
pag akoy inaaway kanyang tinatahol           
 AmEmDmC
mahal niya ako mahal ko rin sya    
 FGC
kaibigan tunay sa hirap at ginhawa          
 AmEmDmC
kahit hayop at dapat ding mahalin    
 FCGC
lalo't maamo at masunurin      
 AmEmDmC
ngunit minsan ay di mo rin akalain     
 FCGC
ang pangyayari ay nagbabago rin           

Solo
e|---------------------------------------------------------------------------|
B|-9s12-12-8h10-10-9-9h10-12-12-------------------------8---10-11-11h12-12-12|
G|------------------------------10h12-12-12-11-9--9-9-9---9------------------|
D|---------------------------------------------------------------------------|
A|---------------------------------------------------------------------------|
E|---------------------------------------------------------------------------|
e|-9-8-----------------------------------------------------------------------|
B|-----9h11-11-9h11-11-8-7---------------------------------------------------|
G|---------------------------------------------------------------------------|
D|---------------------------------------------------------------------------|
A|---------------------------------------------------------------------------|
E|---------------------------------------------------------------------------|


 CFGC
Kahol sya ng Kahol ang aso ko'y nauulol          
 FGC
laking gulat ko pati ako ay hinabol        
 AmEmDmC
mahal niya ako mahal ko rin sya   
 FGC
kaya ganon nalang ang aking pagtataka            
 CFGC
Solo
e|----------------------------------------------------------------------------|
B|------------8h9h10-10----------------------------8h9h10-10------------------|
G|-8h9-11-12------------9h11-11-11-8h9-9—8h9-11-12-----------9h11-11-11-9h11-8|
D|----------------------------------------------------------------------------|
A|----------------------------------------------------------------------------|
E|----------------------------------------------------------------------------|


ako'y may alaga asong mataba

 FGC
bunto't ay mahaba makinis ang mukha              
 AmEmDmC
kinagat niya ako kinagat ko rin sya   
 FGC
ang kawawa kong alaga pulutan ko na              

Solo
e|-7h9-7h9-7—7h9-7h9-7—7h9-7h9------------------------------------------------|
B|-----------------------------7----------------------------------------------|
G|-------------------------------7s9-9h11-11--8-8-10-11-8-10-11-8-10-11-8-----|
D|----------------------------------------------------------------------------|
A|----------------------------------------------------------------------------|
E|----------------------------------------------------------------------------|


END

+--------------------------------------------------------------------------+

| This file is the author's own work and represents their interpretation |
| of the song. You may only use this file for private study, scholarship, |
| or research. |
+--------------------------------------------------------------------------+


Ultimate-Guitar.Com © 2005


Am C Dm Em F G
variations - click chord images
Transpose chords:
Tuning:
Cool service:
View: Size:
A  A  A
Rating:
Layout:
  • Currently 0/5 Stars.
  • 1
  • 2
  • 3
  • 4
  • 5
 
Accuracy:
  • Currently 0/5 Stars.
  • 1
  • 2
  • 3
  • 4
  • 5
 
click stars to rate
Chordie recommends:
Learn to play guitar with video-based, online guitar lessons at JamPlay.com
Songbook:
Login to add this song to your songbook
Support the artist
Preview/buy this song
MSN Music
Why this non-profit ad?

 
login to add comments/video/corrections