""; ?> Mahadewi by Padi - guitar chords, guitar tabs and lyrics - chordie

Mahadewi

Padi

-----------------------------------------------------------------------------

-----------------------------------------------------------------------------
e|--8---7p8--10--10--8--7------------------------------------
B|------------------------10--8p10--6p8----------------------
G|-----------------------------------------------------------
D|-----------------------------------------------------------
A|-----------------------------------------------------------
E|-----------------------------------------------------------
e|--8---7p8--10--10--8--7--8h12--13--12p13-12--8-------------
B|-----------------------------------------------------------
G|-----------------------------------------------------------
D|-----------------------------------------------------------
A|-----------------------------------------------------------
E|-----------------------------------------------------------
e|--8---7p8--10-8--7-----------------------------------------
B|--------------------10--8--6--6p8--------------------------
G|-----------------------------------------------------------
D|-----------------------------------------------------------
A|-----------------------------------------------------------
E|-----------------------------------------------------------
e|-----------------------------------------------------------
B|--6p8--5-5p6-----------------------------------------------
G|-------------7-5-------------------------------------------
D|-----------------5-5h7-------------------------------------
A|-----------------------------------------------------------
E|-----------------------------------------------------------
 CmajFmaj
 Hamparan langit maha sempurna
 AminGmaj
 Bertahta bintang - bintang angkasa
 CmajFmaj
 Namun satu bintang yang berpijar
 AminGmaj
 Teruntai turun menyapa aku 

Reff:
 CmajFmaj
 Ada tutur kata terucap   
 AminGmaj
 Ada damai yang ku rasakan 
 CmajFmaj
 Bila sinarnya sentuh wajahku
 AminGmajFmaj
 Kepedihan ku pun...terhapuskan   


 CmajFmaj
  Alam raya pun semua tersenyum
 AminGmaj
Merunduk dan memuja hadirnya
 CmajFmaj
  Terpukau aku menatap wajahnya 
 AminGmaj
  Aku merasa mengenal dia...

reff:
 CmajFmaj
  Tapi ada entah dimana
 AminGmaj
  Hanya hatiku mampu menjawabnya
 CmajFmaj
  Mahadewi resapkan nilainya
 AminGmajFmajAmin
  Pencarian ku pun...usai sudah  

e|--8---7p8--10------8--7------------------------------------
B|------------------------10--8p10--6p8----------------------
G|-----------------------------------------------------------
D|-----------------------------------------------------------
A|-----------------------------------------------------------
E|-----------------------------------------------------------
e|--8---7p8--10------8--7--8h12--13--12p13-12--8-------------
B|-----------------------------------------------------------
G|-----------------------------------------------------------
D|-----------------------------------------------------------
A|-----------------------------------------------------------
E|-----------------------------------------------------------
e|--8---7p8--10-8--7-----------------------------------------
B|--------------------10--8--6--6p8--------------------------
G|-----------------------------------------------------------
D|-----------------------------------------------------------
A|-----------------------------------------------------------
E|-----------------------------------------------------------
e|--8---7p8--10---8--7---------------------------------------
B|---------------------10--8p10--6p8-------------------------
G|-----------------------------------------------------------
D|-----------------------------------------------------------
A|-----------------------------------------------------------
E|-----------------------------------------------------------
e|---8--7p8--10--8--7--8----7p8--10--8--7--8-----------------
B|-----------------------------------------------------------
G|-----------------------------------------------------------
D|-----------------------------------------------------------
A|-----------------------------------------------------------
E|-----------------------------------------------------------

e|--8---8-8-8--10-8-7-8---8-8-8---10-8-7-8---8-8-8--10-8-7-8-
B|-----------------------------------------------------------
G|-----------------------------------------------------------
D|-----------------------------------------------------------
A|-----------------------------------------------------------
E|-----------------------------------------------------------

e|--------------10^----------10--12^----10--12--13-----------
B|---10--12--13-----12--13----------13-----------------------
G|-----------------------------------------------------------
D|-----------------------------------------------------------
A|-----------------------------------------------------------
E|-----------------------------------------------------------
e|---10--12--13--15-----8------------------------------------
B|-----------------------------------------------------------
G|-----------------------------------------------------------
D|-----------------------------------------------------------
A|-----------------------------------------------------------
E|-----------------------------------------------------------


 CmajFmaj
  Mahadewi resapkan nilainya

 AminGmaj
  Mahadewi tercipta untukku
 CmajFmaj
  Mahadewi resapkan nilainya
 AminGmaj
  Mahadewi tercipta untukku

p/s: Lagu dari kumpulan Padi ini merupakan lagu yang agak sedap didengar
untuk dihayati.Saya carikan lagu ini kerana ianya sesuai dimainkan
untuk mereka mereka yang baru belajar gitar dan membaca tab.Sekiranya
ada salah dan silap tu minta diperbetulkan.

This songs from Padi is a good song to listen and also to study the
lyric.I have write this tab becouse it is easy for the beginners and
also who was new in tab.I hope any mistake in this tab would be
corrected.

| / slide up
| \ slide down
| h hammer-on
| p pull-off
| ~ vibrato
| + harmonic
| x Mute note
============================================================================

END

+--------------------------------------------------------------------------+

| This file is the author's own work and represents their interpretation |
| of the song. You may only use this file for private study, scholarship, |
| or research. |
+--------------------------------------------------------------------------+


Ultimate-Guitar.Com © 2005


Amin Cmaj Fmaj Gmaj
variations - click chord images
Transpose chords:
Tuning:
Cool service:
View: Size:
A  A  A
Rating:
Layout:
  • Currently 3/5 Stars.
  • 1
  • 2
  • 3
  • 4
  • 5
 
Accuracy:
  • Currently 3/5 Stars.
  • 1
  • 2
  • 3
  • 4
  • 5
 
click stars to rate
Chordie recommends:
Learn to play guitar with video-based, online guitar lessons at JamPlay.com
Songbook:
Login to add this song to your songbook
Support the artist
Preview/buy this song
MSN Music
Why this non-profit ad?

 
login to add comments/video/corrections