Shes A Woman

Beatles

-------------------------------------------------------------------------------

-------------------------------------------------------------------------------

 F#255422
           D      xx0232

 A7D7A7
 My love don't give me presents   

 D7A7
I know that she's no peasant     

 D7
Only ever has to give me

love forever and forever

 A7D7A7
My love don't give me presents   

 E7
Turn me on when I get lonely

 D7A7
People tell me that she's only foolin'

 D7A7E
I know she isn't     

 A7D7A7
She don't give boys the eye     

 D7A7
She hates to see me cry     

 D7
She is happy just to hear me

Say that I will never leave her

 A7D7A7
She don't give boys the eye    

 E7
She will never make me jealous

 D7A7
Give me all the time as well as lovin'

 D7A7
Don't ask me why   

Chorus:

 DbmF#
She's a woman who understands

 DbmDE
She's a woman who loves her man 

 A7D7A7
My love don't give me presents   

 D7A7
I know that she's no peasant    

 D7
Only ever has to give me

Love forever and forever

 A7D7A7
My love don't give me presents   

 E7
Turn me on when I get lonely

 D7A7
People tell me that she's only foolin'

 D7A7E
I know she isn't        

Solo: A7 D7 A7 E7 D7 A7
Chorus

 A7D7A7
My love don't give me presents   

 A7D7A7
know that she's no peasant    

 D7
Only ever has to give me

 D7A7
Love forever and forever   

 D7A7
My love don't give me presents   

 E7
Turn me on when I get lonely

 D7A7
People tell me that she's only foolin'

 D7A7
I know she isn't.   

 A7D7
She's a woman...She's a woman...She's a woman

 A7
She's a woman........Fade away

Solo

e|------ 8----- ---5-- ------|------ ------ ------ ------|
B|---------------------------|---------------------------|
G|---------------------------|7-B-8-----8-R-7------5--/--|
D|---------------------------|---------------------------|
A|---------------------------|---------------------------|
E|---------------------------|---------------------------|

...................................................... 2 times

e|------ 10------ ---8--- ---|7----7 ----7-5------ -----|
B|---------------------------|---------------------------|
G|11--------------9---------7|-----------7-5-----------5/
D|---------------------------|---------------------------|
A|---------------------------|---------------------------|
E|---------------------------|---------------------------|
e|------ 5----- ----3- ------|2----2 ----2------- -----|
B|---------------------------|---------------------------|
G|6-------------4-----------2|-----2-----2-------------|
D|---------------------------|--------------------------5/
A|---------------------------|---------------------------|
E|---------------------------|---------------------------|
e|------ ------ -----7 ------|----10 ----10 -8--- ------|
B|-------5-------------------|---------------------10----|
G|-----------4-/7------/---11|----11-----11--9----------|
D|6--------------------------|---------------------------|
A|---------------------------|---------------------------|
E|---------------------------|---------------------------|
e|------ 8----- ---5-- ------|------ ------ ------ ------|
B|---------------------------|---------------------------|
G|---------------------------|7-B-8-----8-R-7------5-----|
D|---------------------------|---------------------------|
A|---------------------------|---------------------------|
E|---------------------------|---------------------------|


| B Bend
| R Release
| / slide up
| slide down
| h hammer-on
| p pull-off
| ~ vibrato
| + harmonic
| x Mute note

END

+--------------------------------------------------------------------------+

| This file is the author's own work and represents their interpretation |
| of the song. You may only use this file for private study, scholarship, |
| or research. |
+--------------------------------------------------------------------------+


Ultimate-Guitar.Com © 2005


Corrected by wlmason1. View original
A7 D D7 Dbm E E7 F#
variations - click chord images
Transpose chords:
Tuning:
Cool service:
View: Size:
A  A  A
Rating:
Layout:
  • Currently 4.5/5 Stars.
  • 1
  • 2
  • 3
  • 4
  • 5
 
Accuracy:
  • Currently 5/5 Stars.
  • 1
  • 2
  • 3
  • 4
  • 5
 
click stars to rate
Chordie recommends:
Get acoustic guitar lessons and electric guitar lessons at JamPlay.com
Songbook:
Login to add this song to your songbook
Support the artist
Preview/buy this song
MSN Music
Why this non-profit ad?

 
login to add comments/video/corrections

Rynotows (report comment to admin):
Intro: E7  D7  

A7 D7 A7 D7 A7
My love don't give me presents I know that she's no peasant
D7
Only ever has to give me love forever and forever
A7 D7 A7 E7
My love don't give me presents, turn me on when I get lonely
D7 A7 D7 A7 E7
People tell me that she's only fooling I know she isn't

A7 D7 A7 D7 A7
She don't give boy's the eye she hates to see me cry
D7
She is happy just to hear me say that I will never leave her
A7 D7 A7 E7
She don't give boys the eye, she will never make me jealous
D7 A7 D7 A7
Gives me all her time as well as loving don't ask me why

C#m F# C#m D E
She's a woman who understand she's a woman who loves her man
A7 D7 A7 D7 A7
My love don't give me presents, I know that she's no peasant
D7
Only ever has to give me love forever and forever
A7 D7 A7 E7
My love don't give me presents, turn me on when I get lonely
D7 A7 D7 A7 E7
People tell me that she's only fooling I know she isn't (SOLO)

C#m F# C#m D E
She's a woman who understand she's a woman who loves her man
A7 D7 A7 D7 A7
My love don't give me presents, I know that she's no peasant
D7
Only ever has to give me love forever and forever
A7 D7 A7 E7
My love don't give me presents, turn me on when I get lonely
D7 A7 D7 A7
People tell me that she's only fooling, I know she isn't

A7 D A7 E7
She's a woman She's a woman She's a woman She's a woman ...

_______________________________________________________
Contribuição: Hugo Leao(hugocleao@hotmail.com)