Custard Pie

Led Zeppelin

------------------|--------------------|

------------------|--------------------|
------------------|---2---2------------|
---2-2-2-4-4-4-5--|---2---2------------|
---0-0-0-0-0-0-0--|---0---0------------| Repeat several times
------------------|-----3--------------| and then: ------------------|---------------|-------------------| ------------------|---------------|-------------------| --7---------------|--7-6-5--------|-5-4-3-------------| --7---------------|--7-6-5--------|-5-4-3-------------| --5---------------|--5-4-3--------|-3-2-1-------------| ------------------|---------------|-------------------|

Then repeat the first some more(listen to the song for clarification)

-------------

Another verse:

Custard Pie - Led Zeppelin

Explanation:
~~~~~~~~~~~~
/ x Slide up to x
\ x Slide down to x
(x ^ y) Bend up, from x to y if notes are in pasenthesises
(x v y) Bend down, from x to y they are hit once
((x) ^ y) Play y bent, (don't play x)
(x - y) Pull off from x to y
(x + y) Hammer-on from x to y
~~x,y Trill x and y
~~~x Wiggle note
^~~x Play note x bent and wiggle

 A
--------------------5--3--5------------------------------------------------
--2-2-2--2-2--2-----5--3--5------------------------------------------------
--2-2-2--2-2--2-----2--2--2------------------------------------------------
--2-2-2--4-4--5-----2--2--2------------------------------------------------
--0-0-0--0-0--0------------------------------------------------------------
---------------------------------------------------------------------------

 DDC#CCBA#
---------------------------------------------------------------------------
---------------------------------------------------------------------------
----7-------7-6-5----5-4-3-------------------------------------------------
----7-------7-6-5----5-4-3-------------------------------------------------
----5-------5-4-3----3-2-1-------------------------------------------------
---------------------------------------------------------------------------

===========================================================================

 A

--------------------5--3--5------------------------------------------------
--2-2-2--2-2--2-----5--3--5------------------------------------------------
--2-2-2--2-2--2-----2--2--2------------------------------------------------
--2-2-2--4-4--5-----2--2--2------------------------------------------------
--0-0-0--0-0--0------------------------------------------------------------
---------------------------------------------------------------------------

 EGsusFG
--0------3-----------------------------------------------------------------
--0------3-----------------------------------------------------------------
--1------5-----------------------------------------------------------------
--2------3----------3---5--------------------------------------------------
--2------5----------3---5--------------------------------------------------
--0------3----------1---3--------------------------------------------------


END

+--------------------------------------------------------------------------+

| This file is the author's own work and represents their interpretation |
| of the song. You may only use this file for private study, scholarship, |
| or research. |
+--------------------------------------------------------------------------+


Ultimate-Guitar.Com © 2005


A A# B C D E F G Gsus
variations - click chord images
Transpose chords:
Tuning:
Cool service:
View: Size:
A  A  A
Rating:
Layout:
  • Currently 0/5 Stars.
  • 1
  • 2
  • 3
  • 4
  • 5
 
Accuracy:
  • Currently 0/5 Stars.
  • 1
  • 2
  • 3
  • 4
  • 5
 
click stars to rate
Chordie recommends:
Get acoustic guitar lessons and electric guitar lessons at JamPlay.com
Songbook:
Login to add this song to your songbook
Support the artist
Preview/buy this song
MSN Music
Why this non-profit ad?

 
login to add comments/video/corrections