Guitar Tabs, Chords and Lyrics


Sex And Drugs And Rock And Roll  Ian Dury and The Blockheads



E-|---------------|---------------|---------------|------------|---------------|
B-|---------------|---------------|---------------|------------|---------------|
G-|---------------|---------------|---------------|------------|---------------|
D-|---------------|---------------|---------------|-----2------|---------------|
A-|--2--4--5--4---|--2--0---------|--2--4--5--4---|--2---------|--2--4--5--4---|
E-|---------------|--------3------|---------------|------------|---------------|
E-|---------------|---------------|--------
B-|---------------|---------------|--------
G-|---------------|---------------|--------
D-|---------------|---------------|-----5--
A-|--2--0---------|--2--4--5--4---|--2-----
E-|--------3------|---------------|--------

this bit leads into the verses
E-|---------------|--------
B-|---------------|--------
G-|---------------|--------
D-|---------------|--------
A-|--2--0---------|--------
E-|--------3--2---|--0-----


(these words go over the riff)
Sex and drugs and rock 'n' roll
Is all my brain and body need
Sex and drugs and rock 'n' roll
Is very good indeed

[C#m]Keep your silly [Abm]ways or [A]throw them out the win[B]dow
[C#m]The wisdom of yo[Abm]ur ways [A]I've been there and I [B]know
[C#m]Lots of other wa[Abm]ys, what[A] a jolly bad show     [B]
[D]If all you ever do is bu[B]siness y[A]ou do[G]n't like

play that riff again

Sex and drugs and rock 'n' roll
Sex and drugs and rock 'n' roll
Sex and drugs and rock 'n' roll
Is very good indeed

do the chords again for this verse
Ev'ry bit of clothing ought to make you pretty
You can cut the clothing, grey is such a pity
I should wear the clothing of Mr. Walter Mitty
See my tailor, he's called Simon
I know it's going to fit

vamp on a III pos Em chord over this bit

Here's a little bit of advice
You're quite welcome, it is free
Don't do nothin' that is cut-price
You know what they'll make you be
They will try their tricky devise
Trap you with the ordin'ry
Get your teeth into a small slice
The cake of liberty

verse chords over keys solo

then go berserk on the riff until the song finishes. Or longer, if you prefer.

Sex and drugs and rock 'n' roll
Sex and drugs and rock 'n' roll
Sex and drugs and rock 'n' roll
Sex and drugs and rock 'n' roll - ow! ow!
Sex and drugs and rock 'n' roll - ow! ow! ow! ow!
Sex and drugs and rock 'n' roll ....

Peace.

END

+--------------------------------------------------------------------------+

| This file is the author's own work and represents their interpretation |
| of the song. You may only use this file for private study, scholarship, |
| or research. |
+--------------------------------------------------------------------------+


Ultimate-Guitar.Com © 2005

Important: The song above is NOT stored on the Chordie server. The original song is hosted at www.ultimate-guitar.com. Chordie works as a search engine and provides on-the-fly formatting. Chordie does not index songs against artists'/composers' will. To remove this song please click here.

Text color:
Chord color:
Chord grids: 
Font size:    
Page size: 

A Abm B C#m D G
variations - click chord images

Login - add to songbook

Transpose chords

Tuning

Rating click stars to rate

Layout
Accuracy

SHARE PAGE  




You need to log in to post comments