"yes"; ?> Flirting With Disaster by Molly Hatchet - guitar chords, guitar tabs and lyrics - chordie

Flirting With Disaster

Molly Hatchet

------7-|--9\-|-----7-|--9\-|-12r9----12|-----7-|--9\--|

------7-|--9\-|-----7-|--9\-|------12---|-----7-|--9\--|
------7-|--9\-|-----7-|--9\-|-----------|-----7-|--9\--|
------7-|--9\-|-----7-|--9\-|-----------|-----7-|--9\--|
-5-7----|--7\-|-5-7---|--7\-|-----------|-5-7---|--7\--|
--------|-----|-------|-----|-----------|-------|------|
------------------------------|-----7-|-------|-------|-------|
------------------------------|-----7-|-------|-------|-------|
------------------------------|-----7-|-9-9-9-|-7-7-7-|-6-6-6-|
---------2---------2----------|-----7-|-9-9-9-|-7-7-7-|-6-6-6-|
------------------------------|-5-7---|-7-7-7-|-5-5-5-|-4-4-4-|
--0h3h4-----0h3h4-----4-3-2r0-|-------|-------|-------|-------|
----------------|------------------------|-------------|--------|------|
----------------|------------------------|-------------|--------|------|
----------------|-------------2----------|-------------|--2-----|--4--2|
----------------|-2--4--2--4-----4--2--4-|-------------|--2--4--|--4--2|
--4--5--4--2--0-|-0--0--0--0--0--0--0--0-|--5--7--5--7-|-----0--|------|
----------------|------------------------|--3--3--3--3-|--------|------|
I've got the pedal my life is
to the floor runnin' faster
------------------------|-------------|--------|----------------|
------------------------|-------------|--------|----------------|
-------------2----------|-------------|--2-----|------2---4-4-2-|
-2--4--2--4-----4--2--4-|-------------|--2--4--|--2h4-----4-4-2-|
-0--0--0--0--0--0--0--0-|--5--7--5--7-|-----0--|--------------0-|
------------------------|--3--3--3--3-|--------|----------------|


I'm outta money it looks like
I'm outta hope self de- struction
------------------------|-------------|---------|---------------|
------------------------|-------------|---------|---------------|
-------------2----------|-------------|--2------|-----2-4r2---2-|
-2--4--2--4-----4--2--4-|-------------|--2--4---|-2h4-------4---|
-0--0--0--0--0--0--0--0-|--5--7--5--7-|-----0---|---------------|
------------------------|--3--3--3--3-|---------|---------------|


Well how much all of
more can we take with this cor- ruption
------------------------|-------------|--------|------------------|
------------------------|-------------|--------|------------------|
-------------2----------|-------------|--2-----|------------------|
-2--4--2--4-----4--2--4-|-------------|--2--4--|-------2-4r2--2/4-|
-0--0--0--0--0--0--0--0-|--5--7--5--7-|-----0--|-0h3h4--------4/6-|
------------------------|--3--3--3--3-|--------|------------------|


been flirtin' with disas ya'll sure know
ter what it means
-------------|--9--|--7--|--7--|---5----|---4---|--------------------|
-------------|--9--|--7--|--7--|---5----|---4---|--------------------|
-----------4-|--9--|--8--|--7--|---6----|---4---|--------------------|
-------4-6---|--9--|--9--|--7--|---7----|---4---|-----4--6r4---------|
-0h5h6-------|--7--|--9--|--5--|---7----|---6---|-4h6--------6r4--4--|
-------------|-----|--7--|-----|---5----|-------|-------------------7|


and the run our makes to
way we lives no sense me
-------------|--9--|--7--|--7---|---5---|--4--|---------------------|
-------------|--9--|--7--|--7---|---5---|--4--|---------------------|
-----------4-|--9--|--7--|--7---|---5---|--4--|---------------------|
-------4-6---|--9--|--9--|--7---|---7---|--4--|-----4--6r4----------|
-0h5h6-------|--7--|--9--|--5---|---7---|--6--|-4h6--------6r4--4---|
-------------|-----|--7--|------|---5---|-----|-------------------7-|


I don't about your- or what want be
know self you to yeah
-------------|--9--|--7--|--7---|---5---|--4--|---------------------|
-------------|--9--|--7--|--7---|---5---|--4--|---------------------|
-----------4-|--9--|--8--|--7---|---6---|--4--|---------------------|
-------4-6---|--9--|--9--|--7---|---7---|--4--|-----4--6r4----------|
-0h5h6-------|--7--|--9--|--5---|---7---|--6--|-4h6--------6r4--4---|
-------------|-----|--7--|------|---5---|-----|-------------------7-|


when we with our we our
gamble time choose desti- ny
-------------|--9--|--7--|--7---|---5---|--4--|
-------------|--9--|--7--|--7---|---5---|--4--|
-----------4-|--9--|--8--|--7---|---6---|--4--|
-------4-6---|--9--|--9--|--7---|---7---|--4--|
-0h5h6-------|--7--|--9--|--5---|---7---|--6--|
-------------|-----|--7--|------|---5---|-----|


CHORUS:

 DAB
Yeah I'm travelin' down that lonesome road

( then play this fill-in run )
-----7----7----7----7----7----7----7\-|
--------------------------------------|
--9b---9b---9b---9b---9b---9b---9b----|
--------------------------------------|
--------------------------------------|
--------------------------------------|


 DAB
Feels like I'm draggin' a heavy load

( then play this fill-in run )
-------------7\--|----------------|
-------7---------|-------7--------|
--5/8-----8------|--5/8-----8-----|
-----------------|-------------9v-|
-----------------|----------------|
-----------------|----------------|


 DAB
                                    Yeah, I've tried to turn my head away

Then do a barre chord run of : A - Bb - B - C - C# - D


 DAE
Flirtin' with disaster everyday.

 E

--9--|-----------------------------------|
--9--|----------------------------10-----|
--9--|--------------9--11r9-----------9--|
--9--|-------9--11-----------11----------|
--11-|-9h11------------------------------|
--12-|-----------------------------------|


 D
--7--|-----------------------------|
--7--|-----------------------------|
--7--|------------7--9r7-----------|
--7--|------7--9----------9--7-----|
--9--|-7h9----------------------5--|
--10-|-----------------------------|


 A
--2--|---------------|
--2--|---------------|
--2--|--4r2----------|
--2--|-------4--2--4-|
--0--|---------------|
-----|---------------|


 G
--3--|---------------|
--3--|---------------|
--4--|--2r0----------|
--5--|-------2--0--2-|
-----|---------------|
-----|---------------|
------------------------------------------|
------------------------------------------|
------------------------------------------|
---------------2--4r2-----2----6-6---5--6-|
---------2--4----------4-------7-7---6--7-|
--0h3h4-----------------------------------|


(Then repeat this entire sequence)

2nd verse:

Speedin' down the fast lane, playin' from town to town.
The boys and I've been burnin' it up,
can't seem to slow it down.
I've got the pedal to the floor
Our lives are runnin' faster
Got our sights set straight ahead
Flirtin' with disaster.

Any questions, comments, or complaints, feel free
to E-mail me or post a thread at this sight.

END

+--------------------------------------------------------------------------+

| This file is the author's own work and represents their interpretation |
| of the song. You may only use this file for private study, scholarship, |
| or research. |
+--------------------------------------------------------------------------+


Ultimate-Guitar.Com © 2005


A B D E G
variations - click chord images
Transpose chords:
Tuning:
Cool service:
View: Size:
A  A  A
Rating:
Layout:
  • Currently 1/5 Stars.
  • 1
  • 2
  • 3
  • 4
  • 5
 
Accuracy:
  • Currently 0/5 Stars.
  • 1
  • 2
  • 3
  • 4
  • 5
 
click stars to rate
Chordie recommends:
Check out JamPlay.com for online video guitar lessons
Songbook:
Login to add this song to your songbook
Support the artist
Preview/buy this song
MSN Music
Why this non-profit ad?

 
login to add comments/video/corrections