Wind Of Change

Scorpions

----------------------------------------------------------------------------

----------------------------------------------------------------------------
----------------------------------------------------------------------------
----------------------------------------------------------------------------

 CDm
  I follow the Moskva
 C
 Down to Gorky Park
Dm* Am* G* C!
Listening to the wind of change
 CDm
  An August summer night
 C
 Soldiers passing by
Dm* Am* G* C!
Listening to the wind of change

 CDm
  The world is closing in
 C
 Did you ever think
Dm* Am* G* C!
That we could be so close, like brothers

 CDm
  The future's in the air
 C
 I can feel it everywhere
Dm* Am* G* C!
Blowing with the wind of change

(Chorus:)

 CGDmG
    Take me to the magic of the moment
 CG
    On a glory night
 DmGAm
Where the children of tomorrow dream away
 FG
    In the wind of change

 CDm
  Walking down the street
 C
 Distant memories
Dm* Am* G* C!
Are buried in the past forever

 CDm
  I follow the Moskva
 C
 Down to Gorky Park
Dm* Am* G* C!
Listening to the wind of change

 CGDmG
    Take me to the magic of the moment
 CG
    On a glory night
 DmGAm
    Where the children of tomorrow share their dreams
F! G!
With you and me

 CGDmG
    Take me to the magic of the moment
 CG
    On a glory night
 DmGAm
    Where the children of tomorrow dream away
F! G!
In the wind of change

 AmG
  The wind of change blows straight
 Am
 Into the face of time
 G
 Like a stormwind that will ring
 Am
 The freedom bell for peace of mind
 C
 Let your balalaika sing
 EmE7
 What my guitar wants to say     

 CGDmG
    Take me to the magic of the moment
 CG
    On a glory night
 DmGAm
    Where the children of tomorrow share their dreams
F! G!
With you and me

 CGDmG
    Take me to the magic of the moment
 CG
    On a glory night
 DmGAm
    Where the children of tomorrow dream away
F! G!
In the wind of change

Outro is the same as the Intro.

----------------------------------------------------------------------------

PLUCKING PATTERN

The plucking progression for Dm, Am and G goes like this

 DmAmG
e|---1-----|---0-----|------------|
B|-----3---|-----1---|-----3------|
G|-2-----2-|-2-----2-|-0-----0----|
D|-0-------|-2-------|-0-------0--|
A|-0-------|-0-------|-2----------|
E|-0-------|-0-------|-3----------|

OR
 DmAmG
e|---------|---------|---------|
B|-6-6-----|-5-5-----|-5-5-----|
G|-7---7---|-5---5---|-4---4---|
D|-7-----5-|-7-----7-|-5-----5-|
A|-5-------|-7-------|-5-------|
E|---------|-5-------|-3-------|     


The whistling bit can be played on the guitar but it doesn't sound too good.

e|----------------------------|
B|----0-1--1-1-------0-1-3-1--|
G|--2----------2-2-2----------|   x2
D|----------------------------|
A|----------------------------|
E|----------------------------|
e|-----0-1-0---------------------|
B|-1-3---------------------------|
G|-------------------------------| The Dm,Am,G plucking is immediately
D|-------------------------------| picked up after the last note.
A|-------------------------------|
E|-------------------------------|


Hope u liked this tab. PLEASE RATE!!
--------------------------------------------------------------------------


END

+--------------------------------------------------------------------------+

| This file is the author's own work and represents their interpretation |
| of the song. You may only use this file for private study, scholarship, |
| or research. |
+--------------------------------------------------------------------------+


Ultimate-Guitar.Com © 2005


Am C Dm E7 Em F G
variations - click chord images
Transpose chords:
Tuning:
Cool service:
View: Size:
A  A  A
Rating:
Layout:
  • Currently 1/5 Stars.
  • 1
  • 2
  • 3
  • 4
  • 5
 
Accuracy:
  • Currently 0/5 Stars.
  • 1
  • 2
  • 3
  • 4
  • 5
 
click stars to rate
Chordie recommends:
Learn to play this song & others via video guitar lessons at JamPlay.com
Songbook:
Login to add this song to your songbook
Support the artist
Preview/buy this song
MSN Music
Why this non-profit ad?

 
login to add comments/video/corrections