Fly At Night

Chilliwack

----------------------------------------------------------------------------

----------------------------------------------------------------------------

 DGma7
E||-----------2-------------|-----------2-------------|

B||--------3-------3--------|--------3-------3--------|
G||-----2-------------2-----|-----0-------------0-----|
D||--0-------------------0--|----------------------0--|
A||-------------------------|-------------------------|
E||-------------------------|--3----------------------|

 Em9Cadd9
-----------2-------------|--------------0----------|

--------3-------3--------|-----------3-----3-------|
-----0-------------0-----|--------0-----------0----|
----------------------0--|-----2-------------------|
-------------------------|--3----------------------|
--0----------------------|-------------------------|

For those who need to know, here's the Cadd9. Play a C and use your pinky
on the 3rd fret, second string
 Cadd9
E||------0----||

B||------3----||
G||------0----||
D||------2----||
A||------3----||
E||-----------||
Additional chords:
 Dsus4Dsus2Em7
E||--3--------0--------0----|

B||--3--------3--------3----|
G||--2--------2--------0----|
D||--0--------0--------2----|
A||--------------------2----|
E||--------------------0----|

Fill 1:(I think this is actually electric piano, but if you play solo
like me it sounds good to add it)
E||-----------------------||

B||-----------------------||
G||-----------------------||
D||-----------------------||
A||-------0---------------||
E||--3-------3--2--0------||

 DGma7
 Four men in a rock and roll band
 Em9Cadd9
 Fly at night in the morning we land
 DGma7
 Fly at night 'til we're satisfied
 Em9Cadd9
 See the morning from the other side

 GC
 And when you close your eyes                |
G C |
Sleep comes fast |>continue the arpeggiated
G C | pattern
When you fly the universe |
 DAm7
                       D             Am  |
You need some rest, yeah, you need some rest
(tempo change;chug away on the Am for two measures, then
 DG
 Oo we like the big wide spaces (fill 1)
 Em7C
 Yeah we like a sea of faces
 DG
 Time is just a rubber band (fill 1)
 Em7C
 Time is at our command
 GC
 And when we look out
 GC
 And see you there
 GC
 You seem much closer
 DAm
 You feel so near
 G
                                                                              
E||---------------------|---------------------|

B||----------------3----|----5----3-----------|
G||*-4------5------4----|----4----4----5-----*|
D||*-5------5-----------|--------------5-----*|
A||---------------------|---------------------|
E||---------------------|---------------------|
 AmGD
                                                                              
Ah------------------------

 AmGD
                                                                              
E||--------------------|-------------------|-------------------|

B||--10----------------|--8----------------|--7----------------|
G||--------------------|-------------------|-------------------|
D||--------------------|-------------------|-------------------|
A||--------------------|-------------------|-------------------|
E||--------------------|-------------------|-------------------|
 AmG
                                                                             
-------------------|--------------------|--------------------|

--7---------------|--10----------------|--12----------------|
-------------------|--------------------|--------------------|
-------------------|--------------------|--------------------|
-------------------|--------------------|--------------------|
-------------------|--------------------|--------------------|
 D
                                                                              
--------------------|--------------------|

--15----------------|--15---------------|
--------------------|--------------------|
--------------------|--------------------|
--------------------|--------------------|
--------------------|--------------------|
(1st solo)

 Am
 Well we fly by night it's like a rocket flight
 GD
And baby that's just what it's for
 Am
 Yeah we fly by night it makes you feel all right
 GD
You keep coming back for more
 AmGD
                                                                               
Ah-----------------------

(back to slow tempo)
 Am
 Yeah we fly by night it's like a rocket flight
 GD
And baby that's just what it's for
 Am
Yeah we fly by night it makes you feel all right

 GD
You keep coming back for more
(back to fast tempo)
 AmGD
                                                                              
Ah--------------------------

(2nd solo)

(back to intro pattern,slow tempo)
Four men in a rock and roll band

Fly at night in the morning we land

Fly at night 'til we're satisfied

See the morning from the other side
End fill:
E||--14--------12--------|----------------------|--------------------||

B||----------------------|--15--------13--------|--15----------------||
G||----------------------|----------------------|--------------------||
D||----------------------|----------------------|--------------------||
A||----------------------|----------------------|--------------------||
E||----------------------|----------------------|--------------------||
E||--14--------12--------|----------------------|--22----------------||
B||----------------------|--15--------13--------|--------------------||
G||----------------------|----------------------|--------------------||
D||----------------------|----------------------|--------------------||
A||----------------------|----------------------|--------------------||
E||----------------------|----------------------|--------------------||

We need more Chilliwack tabs!! Can anyone do Groundhog? I think it was
written by Buffy Sainte-Marie, but I don't have the record (pre-cd's, folks)
and I think it's out of print. I'll do what I can, but someone will have to
help me out...&:
============================================================================

END

+--------------------------------------------------------------------------+

| This file is the author's own work and represents their interpretation |
| of the song. You may only use this file for private study, scholarship, |
| or research. |
+--------------------------------------------------------------------------+


Ultimate-Guitar.Com © 2005


Corrected by taxman9. View original
Am Am7 C Cadd9 D Dsus2 Dsus4 Em7 Em9 G Gma7
variations - click chord images
Transpose chords:
Tuning:
Cool service:
View: Size:
A  A  A
Rating:
Layout:
  • Currently 4/5 Stars.
  • 1
  • 2
  • 3
  • 4
  • 5
 
Accuracy:
  • Currently 4/5 Stars.
  • 1
  • 2
  • 3
  • 4
  • 5
 
click stars to rate
Chordie recommends:
Learn to play songs at Jamplay.com with video guitar lessons
Songbook:
Login to add this song to your songbook
Support the artist
Preview/buy this song
MSN Music
Why this non-profit ad?

 
login to add comments/video/corrections