Chordie logo


Going Under   Evanescence



| Ultimate Guitar Tabs Archive - your #1 source for tabs!               |
| http://www.ultimate-guitar.com/                                       |
|                                                                       |
| Over 200,000 guitar, guitar pro and bass tabs! Also lessons, news,    |
| columns and guitar forums!                                            |


Artist: Evanescence
Song: Going Under


Band - Evanescence
Song - Going Under

Tuning: Gtr I (B E A D G B)
        Gtr II (B E A D G B)
        Gtr III (E A D G B E)

  Gtr I
|---------|---------------|---------------|---------------|
|---------|---------------|---------------|---------------|
|---------|-9-9--9-9-9----|-9-9--9-9-9----|-9-9--9-9-9----|
|---------|-9-9--9-9-9----|-9-9--9-9-9----|-9-9--9-9-9----|
|---------|---------------|---------------|---------------|
|---------|---------------|---------------|---------------|


|---------------|---------------|---------------|---------------|
|---------------|---------------|---------------|---------------|
|-9-9--9-9-9----|-9-9--9-9-9----|-9-9--9-9-9----|-9-9--9-9-9----|
|-9-9--9-9-9----|-9-9--9-9-9----|-9-9--9-9-9----|-9-9--9-9-9----|
|---------------|---------------|---------------|---------------|
|---------------|---------------|---------------|---------------|


|---------------|----------|---------------|----------------|
|---------------|----------|---------------|----------------|
|-9-9--9-9-9----|----------|-9-9--9-9-9----|-9-9--9-9-9-----|
|-9-9--9-9-9----|----------|-9-9--9-9-9----|-9-9--9-9-9-----|
|---------------|----------|---------------|----------------|
|---------------|----------|---------------|----------------|
|
| Gtr III
|---------------|----------|---------------|----------------|
|---------------|-0--------|---------------|----------------|
|---------------|-0--------|---------------|----------------|
|---------------|----------|---------------|----------------|
|---------------|----------|---------------|----------------|
|---------------|----------|---------------|----------------|


|-----------------|-----------------|---------------|---------------|
|-----------------|-----------------|---------------|---------------|
|-9-9--9-9-9------|-9-9--9-9-9------|-9-9--9-9-9----|-9-9--9-9-9----|
|-9-9--9-9-9-9--9-|-9-9--9-9-9-9--9-|-9-9--9-9-9----|-9-9--9-9-9----|
|-----------------|-----------------|---------------|---------------|
|-----------------|-----------------|---------------|---------------|


                                      Gtr III
|-----------------|-----------------|-10--------|-12----|
|-----------------|-----------------|--8--------|-10----|
|-9-9--9-9-9------|-9-9--9-9-9-9--9-|-----------|-------|
|-9-9--9-9-9-9--9-|-9-9--9-9-9-9--9-|-----------|-------|
|-----------------|-----------------|-----------|-------|
|-----------------|-----------------|-----------|-------|


  Gtr I






|-----------|-----------|------------------------|-------------------------|
|-----------|-----------|------------------------|-------------------------|
|-----------|-----------|-----------------17--17-|------------------19--19-|
|-----------|-----------|-14--14--(14)-17-17--17-|-17--17--(17)-19--19--19-|
|-----------|-----------|-14--14--(14)-15--------|-17--17--(17)-17---------|
|-----------|-----------|-12--12--(12)-----------|-15--15--(15)------------|
|
| Gtr III
|-----------|-12--------|--7-------(7)-----------|-10------(10)------------|
|-12--------|-----------|--7-------(7)--8-(8)----|-10------(10)-10-(10)----|
|--9--------|--9--------|---------------7-(7)----|---------------9--(9)----|
|-----------|-----------|------------------------|-------------------------|
|-----------|-----------|------------------------|-------------------------|
|-----------|-----------|------------------------|-------------------------|


|------------------------|-------------------------|
|------------------------|-------------------------|
|-----------------17--17-|------------------19--19-|
|-14--14--(14)-17-17--17-|-17--17--(17)-19--19--19-|
|-14--14--(14)-15--------|-17--17--(17)-17---------|
|-12--12--(12)-----------|-15--15--(15)------------|
|
|--7-------(7)-----------|-10------(10)------------|
|--7-------(7)--8-(8)----|-10------(10)-10-(10)----|
|---------------7-(7)----|---------------9--(9)----|
|------------------------|-------------------------|
|------------------------|-------------------------|
|------------------------|-------------------------|


|------------------------|-------------------------|
|------------------------|-------------------------|
|-----------------17--17-|------------------19--19-|
|-14--14--(14)-17-17--17-|-17--17--(17)-19--19--19-|
|-14--14--(14)-15--------|-17--17--(17)-17---------|
|-12--12--(12)-----------|-15--15--(15)------------|
|
|--7-------(7)-----------|-10------(10)------------|
|--7-------(7)--8-(8)----|-10------(10)-10-(10)----|
|---------------7-(7)----|---------------9--(9)----|
|------------------------|-------------------------|
|------------------------|-------------------------|
|------------------------|-------------------------|


|------------------------|-------------------------|
|------------------------|-------------------------|
|-----------------17--17-|------------------19--19-|
|-14--14--(14)-17-17--17-|-17--17--(17)-19--19--19-|
|-14--14--(14)-15--------|-17--17--(17)-17---------|
|-12--12--(12)-----------|-15--15--(15)------------|
|
|--7-------(7)-----------|-10------(10)------------|
|--7-------(7)--8-(8)----|-10------(10)-10-(10)----|
|---------------7-(7)----|---------------9--(9)----|
|------------------------|-------------------------|
|------------------------|-------------------------|
|------------------------|-------------------------|


|---------------|---------------|
|---------------|---------------|
|-9-9--9-9-9----|-9-9--9-9-9----|
|-9-9--9-9-9----|-9-9--9-9-9----|
|---------------|---------------|
|---------------|---------------|
|
|---------------|---------------|
|---------------|---------------|
|---------------|---------------|
|---------------|---------------|
|---------------|---------------|
|---------------|---------------|


|---------------|-----------------|-----------------|---------------|
|---------------|-----------------|-----------------|---------------|
|-9-9--9-9-9----|-9-9--9-9-9------|-9-9--9-9-9------|-9-9--9-9-9----|
|-9-9--9-9-9----|-9-9--9-9-9-9--9-|-9-9--9-9-9-9--9-|-9-9--9-9-9----|
|---------------|-----------------|-----------------|---------------|
|---------------|-----------------|-----------------|---------------|
|
|---------------|-----------------|----------8------|---------------|
|---------------|-----------------|----------8------|---------------|
|---------------|-----------------|-----------------|---------------|
|---------------|-----------------|-----------------|---------------|
|---------------|-----------------|-----------------|---------------|
|---------------|-----------------|-----------------|---------------|


                                                      Gtr III
|---------------|-----------------|-----------------|-10----|
|---------------|-----------------|-----------------|--8----|
|-9-9--9-9-9----|-9-9--9-9-9------|-9-9--9-9-9-9--9-|-------|
|-9-9--9-9-9----|-9-9--9-9-9-9--9-|-9-9--9-9-9-9--9-|-------|
|---------------|-----------------|-----------------|-------|
|---------------|-----------------|-----------------|-------|


  Gtr I
|-----------|-----------|-----------|------------------------|
|-----------|-----------|-----------|------------------------|
|-----------|-----------|-----------|-----------------17--17-|
|-----------|-----------|-----------|-14--14--(14)-17-17--17-|
|-----------|-----------|-----------|-14--14--(14)-15--------|
|-----------|-----------|-----------|-12--12--(12)-----------|
|
| Gtr III
|-12--------|-----------|-12--------|--7-------(7)-----------|
|-10--------|-12--------|-----------|--7-------(7)--8-(8)----|
|-----------|--9--------|--9--------|---------------7-(7)----|
|-----------|-----------|-----------|------------------------|
|-----------|-----------|-----------|------------------------|
|-----------|-----------|-----------|------------------------|


|-------------------------|------------------------|
|-------------------------|------------------------|
|------------------19--19-|-----------------17--17-|
|-17--17--(17)-19--19--19-|-14--14--(14)-17-17--17-|
|-17--17--(17)-17---------|-14--14--(14)-15--------|
|-15--15--(15)------------|-12--12--(12)-----------|
|
|-10------(10)------------|--7-------(7)-----------|
|-10------(10)-10-(10)----|--7-------(7)--8-(8)----|
|---------------9--(9)----|---------------7-(7)----|
|-------------------------|------------------------|
|-------------------------|------------------------|
|-------------------------|------------------------|


|-------------------------|------------------------|
|-------------------------|------------------------|
|------------------19--19-|-----------------17--17-|
|-17--17--(17)-19--19--19-|-14--14--(14)-17-17--17-|
|-17--17--(17)-17---------|-14--14--(14)-15--------|
|-15--15--(15)------------|-12--12--(12)-----------|
|
|-10------(10)------------|--7-------(7)-----------|
|-10------(10)-10-(10)----|--7-------(7)--8-(8)----|
|---------------9--(9)----|---------------7-(7)----|
|-------------------------|------------------------|
|-------------------------|------------------------|
|-------------------------|------------------------|







|-------------------------|------------------------|
|-------------------------|------------------------|
|------------------19--19-|-----------------17--17-|
|-17--17--(17)-19--19--19-|-14--14--(14)-17-17--17-|
|-17--17--(17)-17---------|-14--14--(14)-15--------|
|-15--15--(15)------------|-12--12--(12)-----------|
|
|-10------(10)------------|--7-------(7)-----------|
|-10------(10)-10-(10)----|--7-------(7)--8-(8)----|
|---------------9--(9)----|---------------7-(7)----|
|-------------------------|------------------------|
|-------------------------|------------------------|
|-------------------------|------------------------|


|-------------------------|-------------------------|
|-------------------------|-19-19-19-19-19-19-19-19-|
|------------------19--19-|-------------------------|
|-17--17--(17)-19--19--19-|-------------------------|
|-17--17--(17)-17---------|-------------------------|
|-15--15--(15)------------|-20-20-20-20-20-20-20-20-|
|
|-10------(10)------------|-------------------------|
|-10------(10)-10-(10)----|--8----------------------|
|---------------9--(9)----|-------------------------|
|-------------------------|-------------------------|
|-------------------------|-------------------------|
|-------------------------|-------------------------|


|-------------------------|-------------------------|
|-18-18-18-18-18-18-18-18-|-16-16-16-16-16-16-16-16-|
|-------------------------|-16-16-16-16-16-16-16-16-|
|-------------------------|-------------------------|
|-------------------------|-------------------------|
|-19-19-19-19-19-19-19-19-|-------------------------|
|
|-------------------------|-------------------------|
|--7----------------------|-------------------------|
|-------------------------|-------------------------|
|-------------------------|--9----------------------|
|-------------------------|-------------------------|
|-------------------------|-------------------------|


|-----------------------|-------------------------|
|-16-16-16-16-16-16-----|-------------------------|
|-16-16-16-16-16-16-----|-17-17-17-17-17-17-17-17-|
|-------------------19--|-17-17-17-17-17-17-17-17-|
|-------------------17--|-------------------------|
|-----------------------|-------------------------|
|
|-----------------------|-------------------------|
|-----------------------|--8----------------------|
|-----------------------|-------------------------|
|--9-----------------7--|-------------------------|
|-----------------------|-------------------------|
|-----------------------|-------------------------|


|-------------------|-------------------------------------|
|-------------------|-------------------------------------|
|-16-16-16-16-16----|------------------------------17--17-|
|-16-16-16-16-16----|-14----------14-------(14)-17-17--17-|
|-------------------|-14----------14-------(14)-15--------|
|-------------------|-12----------12-------(12)-----------|
|
| Gtr II
|-------------------|-12-17-19-22-24-0-0-0---0------------|
|-------------------|-------------------------------------|
|-------------------|-------------------------------------|
|-------------------|-------------------------------------|
|-------------------|-------------------------------------|
|-------------------|-------------------------------------|
|

| Gtr III
|--9----------------|--7--------------------(7)-----------|
|-------------------|--7--------------------(7)--8-(8)----|
|-------------------|----------------------------7-(7)----|
|-------------------|-------------------------------------|
|-------------------|-------------------------------------|
|-------------------|-------------------------------------|


|------------------------------------|
|------------------------------------|
|----------------------------19--19--|
|-17-------17-------(17)-19--19--19--|
|-17-------17-------(17)-17----------|
|-15-------15-------(15)-------------|
|
|--0-0-0-0--0-0-0-0---0--------------|
|------------------------------------|
|------------------------------------|
|------------------------------------|
|------------------------------------|
|------------------------------------|
|
|-10----------------(10)-------------|
|-10----------------(10)-10-(10)-----|
|-------------------------9--(9)-----|
|------------------------------------|
|------------------------------------|
|------------------------------------|


|----------------------------------|
|----------------------------------|
|---------------------17-----17----|
|-14--14--(14)-17-----17-----17----|
|-14--14--(14)-15------------------|
|-12--12--(12)---------------------|
|
|-24-------24--23-22-(22)-20-19-17-|
|----------------------------------|
|----------------------------------|
|----------------------------------|
|----------------------------------|
|----------------------------------|
|
|--7-------(7)---------------------|
|--7-------(7)--8-----(8)----------|
|---------------7-----(7)----------|
|----------------------------------|
|----------------------------------|
|----------------------------------|


|-----------------------------------------------|-------|
|-----------------------------------------------|-------|
|----------------------------------------19--19-|-------|
|-17----------17----------(17)----19-----19--19-|-------|
|-17----------17----------(17)----17------------|-------|
|-15----------15----------(15)------------------|-------|
|
|-24-22-19-22-17-19-22-24--19--22-17-19--15--14-|-------|
|-----------------------------------------------|-------|
|-----------------------------------------------|-------|
|-----------------------------------------------|-------|
|-----------------------------------------------|-------|
|-----------------------------------------------|-------|
|
|-10----------------------(10)------------------|-10----|
|-10----------------------(10)----10----(10)----|--8----|
|----------------------------------9-----(9)----|-------|
|-----------------------------------------------|-------|
|-----------------------------------------------|-------|
|-----------------------------------------------|-------|



|-----------|-----------|-----------|------------------------|
|-----------|-----------|-----------|------------------------|
|-----------|-----------|-----------|-----------------17--17-|
|-----------|-----------|-----------|-14--14--(14)-17-17--17-|
|-----------|-----------|-----------|-14--14--(14)-15--------|
|-----------|-----------|-----------|-12--12--(12)-----------|
|
| Gtr III
|-12--------|-----------|-12--------|--7-------(7)-----------|
|-10--------|-12--------|-----------|--7-------(7)--8-(8)----|
|-----------|--9--------|--9--------|---------------7-(7)----|
|-----------|-----------|-----------|------------------------|
|-----------|-----------|-----------|------------------------|
|-----------|-----------|-----------|------------------------|


|-------------------------|------------------------|
|-------------------------|------------------------|
|------------------19--19-|-----------------17--17-|
|-17--17--(17)-19--19--19-|-14--14--(14)-17-17--17-|
|-17--17--(17)-17---------|-14--14--(14)-15--------|
|-15--15--(15)------------|-12--12--(12)-----------|
|
|-10------(10)------------|--7-------(7)-----------|
|-10------(10)-10-(10)----|--7-------(7)--8-(8)----|
|---------------9--(9)----|---------------7-(7)----|
|-------------------------|------------------------|
|-------------------------|------------------------|
|-------------------------|------------------------|


|-------------------------|------------------------|
|-------------------------|------------------------|
|------------------19--19-|-----------------17--17-|
|-17--17--(17)-19--19--19-|-14--14--(14)-17-17--17-|
|-17--17--(17)-17---------|-14--14--(14)-15--------|
|-15--15--(15)------------|-12--12--(12)-----------|
|
|-10------(10)------------|--7-------(7)-----------|
|-10------(10)-10-(10)----|--7-------(7)--8-(8)----|
|---------------9--(9)----|---------------7-(7)----|
|-------------------------|------------------------|
|-------------------------|------------------------|
|-------------------------|------------------------|


|-------------------------|------------------------|
|-------------------------|------------------------|
|------------------19--19-|-----------------17--17-|
|-17--17--(17)-19--19--19-|-14--14--(14)-17-17--17-|
|-17--17--(17)-17---------|-14--14--(14)-15--------|
|-15--15--(15)------------|-12--12--(12)-----------|
|
|-10------(10)------------|--7-------(7)-----------|
|-10------(10)-10-(10)----|--7-------(7)--8-(8)----|
|---------------9--(9)----|---------------7-(7)----|
|-------------------------|------------------------|
|-------------------------|------------------------|
|-------------------------|------------------------|


|-------------------------|------------------------|
|-------------------------|------------------------|
|------------------19--19-|-----------------17--17-|
|-17--17--(17)-19--19--19-|-14--14--(14)-17-17--17-|
|-17--17--(17)-17---------|-14--14--(14)-15--------|
|-15--15--(15)------------|-12--12--(12)-----------|
|
|-10------(10)------------|--7-------(7)-----------|
|-10------(10)-10-(10)----|--7-------(7)--8-(8)----|
|---------------9--(9)----|---------------7-(7)----|
|-------------------------|------------------------|
|-------------------------|------------------------|
|-------------------------|------------------------|


|-------------------------|------------------------|
|-------------------------|------------------------|
|------------------19--19-|-----------------17--17-|
|-17--17--(17)-19--19--19-|-14--14--(14)-17-17--17-|
|-17--17--(17)-17---------|-14--14--(14)-15--------|
|-15--15--(15)------------|-12--12--(12)-----------|
|
|-10------(10)------------|--7-------(7)-----------|
|-10------(10)-10-(10)----|--7-------(7)--8-(8)----|
|---------------9--(9)----|---------------7-(7)----|
|-------------------------|------------------------|
|-------------------------|------------------------|
|-------------------------|------------------------|


|-------------------------|---------------------*|
|-------------------------|---------------------*|
|------------------19--19-|--9--9---9--9--9-----*|
|-17--17--(17)-19--19--19-|--9--9---9--9--9-----*|
|-17--17--(17)-17---------|---------------------*|
|-15--15--(15)------------|---------------------*|
|
|                           Gtr II
|-10------(10)------------|---------------------*|
|-10------(10)-10-(10)----|---------------------*|
|---------------9--(9)----|---------------------*|
|-------------------------|---------------------*|
|-------------------------|---------------------*|
|-------------------------|-12-12--12-12-12-----*|

END

+--------------------------------------------------------------------------+
| This file is the author's own work and represents their interpretation   |
| of the song. You may only use this file for private study, scholarship,  |
| or research.                                                             |
+--------------------------------------------------------------------------+



Important: The song above is NOT stored on the Chordie server. The original song is hosted at www.ultimate-guitar.com. Chordie works as a search engine and provides on-the-fly formatting. Chordie does not index songs against artists/composers will. To remove this song please click here.

This song is displayed as text-only. Transposing and tuning is only available for chordpro-songs.

Login - add to songbook

Rating click stars to rate

Layout
Accuracy

SHARE PAGE  




You need to log in to post comments