Chordie logo


Banana Pancakes  Jack Johnson

Am7 575555 G7 353433 for chorus

for rest g7 (same), to D7 x5453x then slide down to a7 xo2o1o then slide up to c7 x3535x
then back to G7 MAKE SURE TO HIT BASS NOTE FIRST THEN STUM THE REST OF CHORD
(EX: G7 You hit the g note on e string 3 fret then stum the rest of chord
the count is bass string one strum two next bass string three and next strum 4
Intro
E-----------------------------------x--5---------------------------------- x--3--|
B-----------------------------------x--5-----------------------------------x--3--|
G-----------------------------------x--5-----------------------------------x--4--|
D-----------------------------------x--5-----------------------------------x--3--|
A---------5-------------------------x--7-----------5-----------------------x--5--|
E---5/7-------7---5/3---0---3/5---x--5-----5/7-------7---5/3---0---3----x--3--|

E-----------------------------------x--5-----------------------------------x--3--|
B-----------------------------------x--5-----------------------------------x--3--|
G-----------------------------------x--5-----------------------------------x--4--|
D-----------------------------------x--5-----------------------------------x--3--|
A---------5---7---5-----------------x--7-----------5-----------------------x--5--|
E---5/7----------------7---0---5----x--5-----5/7-------7---5/3---0---3---x--3--|
Can't u see that it's just raining there ain't no need to go outside
But [D7]Baby!

You hardly [G7]even know [D7]this when i [Am7]try to show you[C7]
Song is [G7]meant to keep [D7]you from doing [Am7]what you're supposed [C7]to
wakin' [G7]up to ear[D7]ly maybe [Am]we could sleep[C7]
make you ba[G7]nana pan[D7]cakes, pretend like [Am7]its the week[C7]end now[Am7]

we could pretend it all the time[G7] turn around from beginning
Can't you see that its just raining?[Am7]
Ain't no need to go outside[G7]
But just [D7]maybe!
Hala ka [G7]ukule[D7]le, mama [Am7]made a ba[C7]by
Really don't [G7]mind the prac[D7]tice, cause you're my [Am]little la[C7]dy
Lady [G7]lady love [D7]me, cause I love to [Am7]lay you la[C7]zy
We could [G7]close the cur[D7]tains pretend like [Am7]there's no world [C7]outside [Am]
Then we could pretend it all the time. G7 + turn around from intro
cant you see that its just raining, Am7 Plus turn around
Ain't no need to go outside. G7 Plus Turn Around

(just chords at this point, no fill)

Ain't no need Ain't no need. Am7
mmmm mmmm mmmmm mmmmm g7
Can't you see can't you see? am7
Rain all day and I don't mind. g7


:Bridge:

Am D
But the telephones singin ringin its too early dont pick it up.

We don't need to

Am D
we got everything we need right here and everything we need is enough.


just so easy

Bm
When the whole world fits inside of your arms

Em C
do we really need to pay attention to the alarm?


G7 D7
wake up slow, mmmmm mmmmmm
G7
wake up slow


:verse:

But Baby!

You hardly even know this
when i try to show you
Song is meant to keep you from doing what you're supposed to.

fill on 'supposed'
e ----------|
D ----------|
B ----------|
G ----5-7-5-|
A 5/7-------|
E ----------|


Wakin' up to early
maybe we could sleep
make you banana pancakes
pretend like its the weekend


:Chorus:

now a7

We could pretend it all the time. g7
cant you see that its just raining. am7
Ain't no need to go outside g7
aint no need aint no need. am7
Rain all day and I really g7 really really don't mind.
Can't you see can't you see? am7
you gotta wake up slow. g7
Ultimate-Guitar.Com © 2005

Important: The song above is NOT stored on the Chordie server. The original song is hosted at www.ultimate-guitar.com. Chordie works as a search engine and provides on-the-fly formatting. Chordie does not index songs against artists/composers will. To remove this song please click here.

Text color:
Chord color:
Chord grids: 
Font size:    
Page size: 

Am Am7 C7 D7 G7
variations - click chord images

Login - add to songbook

Transpose chords

Tuning

Rating click stars to rate

Layout
Accuracy

SHARE PAGE  




You need to log in to post comments