"yes"; ?> Belle by Jack Johnson - guitar chords, guitar tabs and lyrics - chordie

Belle

Jack Johnson

 Gmaj7G6Gm7Gm6
|---------------|---------------|---------------|---------------|
|-----3------3--|-----3-----3---|-----3--3-3-3--|-----3-----3---|
|-----4------4--|-----4----4----|-----3--3-3-3--|-----3----3----|
|-----4------4--|-----2---2---0-|-----3--3-3-3--|-----2---2---0-|
|---------------|---------------|---------------|---------------|
|-3------3-3----|-3------3------|-3-------------|-3------3------|


Bonita, bonita que tal? But
 Gmaj7G6Bm7Cm6
|---------------|---------------|---------------|---------------|
|-----3------3--|-----3-----3---|-----7------7--|-8--8---8--8---|
|-----4------4--|-----4----4----|-----7------7--|-8--8---8--8---|
|-----4------4--|-----2---2---0-|-----7------7--|-7--7---7--7-0-|
|---------------|---------------|---------------|---------------|
|-3------3-3----|-3------3------|-7------7-7----|------8--------|


belle Je ne comprend pas
 Am7Am6Am7G#7
|---------------|---------------|---------------|---------------|
|-----5------5--|-----5-----5---|-----5------5--|-----4-----4---|
|-----5------5--|-----5----5----|-----5------5--|-----5----5----|
|-----5------5--|-----4---4---0-|-----5------5--|-----4---4---0-|
|---------------|---------------|---------------|---------------|
|-5------5-5----|-5------5------|-5------5-5----|-4------4------|


francais So you'll have to speak to me Some other
 Gmaj7Cm7Am7G#7
|---------------|---------------|---------------|---------------|
|-----3------3--|-----8-----8---|-----5------5--|-----4-----4---|
|-----4------4--|-----8----8----|-----5------5--|-----5----5----|
|-----4------4--|-----8---8---0-|-----5------5--|-----4---4---0-|
|---------------|---------------|---------------|---------------|
|-3------3-3----|-8------8------|-5------5-5----|-4------4------|


way
 Gmaj7

|---------------|---------------|
|-----3------3--|-3-------------|
|-----4------4--|-4-------------|
|-----4------4--|-4-------------|
|---------------|---------------|
|-3------3-3----|-3-------------|


END

+--------------------------------------------------------------------------+

| This file is the author's own work and represents their interpretation |
| of the song. You may only use this file for private study, scholarship, |
| or research. |
+--------------------------------------------------------------------------+


Ultimate-Guitar.Com © 2005










Am6 Am7 Bm7 Cm6 Cm7 G#7 G6 Gm6 Gm7 Gmaj7
variations - click chord images
Transpose chords:
Tuning:
Cool service:
View: Size:
A  A  A
Rating:
Layout:
  • Currently 3.7/5 Stars.
  • 1
  • 2
  • 3
  • 4
  • 5
 
Accuracy:
  • Currently 3.5/5 Stars.
  • 1
  • 2
  • 3
  • 4
  • 5
 
click stars to rate
Chordie recommends:
Get acoustic guitar lessons and electric guitar lessons at JamPlay.com
Songbook:
Login to add this song to your songbook
Support the artist
Preview/buy this song
MSN Music
Why this non-profit ad?

 
login to add comments/video/corrections